Now Reading
MANIYARAYILE ASHOKAN – Unnimaya Guitar Tabs

MANIYARAYILE ASHOKAN – Unnimaya Guitar Tabs

Enable Light Mode
#
A+
A-

This song is from the movie Maniyarayile Ashokan(2020), released on 28 July 2020 starring Gregory , Anupama Parameswaran , Shine Tom Chacko , Krishna Sankar. It is sung by Dulquer Salmaan , Gregory.It is originally in the key of Gb Major. You can change it to any key you want, using the Transpose option. The average tempo is BPM. These chords are simple and easy to play on the guitar or piano.

Click here for the chords and lyrics version

 
Original Key: Gb Major
Time Signature: 4/4
Tempo: 90
Suggested Strumming: DU,DU,DU,DU
c h o r d  z o n e . o r g
  

E |--2-----3--3--------3--3----|
B |----------------------------|
G |----------------------------|
D |----------------------------|
A |----------------------------|
E |----------------------------|


--2-----3--3--------3--3----|--2-----3--3--------3--3----|
----------------------------|----------------------------|
----------------------------|----------------------------|
----------------------------|----------------------------|
----------------------------|----------------------------|
----------------------------|----------------------------|


--2-----3--3--------3--3----|
----------------------------|
----------------------------|
----------------------------|
----------------------------|
----------------------------|


-----------3--3--3--------5--7--5-----7-------------|
--3--3----------------------------------------------|
----------------------------------------------------|
----------------------------------------------------|
----------------------------------------------------|
----------------------------------------------------|

 www.chordzone.org
--5--5--10----10-10-10-------7-----5--7-------------|
--------------------------10------------------------|
----------------------------------------------------|
----------------------------------------------------|
----------------------------------------------------|
----------------------------------------------------|


--3--3--5-----5--5--5-----7--5--------3-------------|
----------------------------------------------------|
----------------------------------------------------|
----------------------------------------------------|
----------------------------------------------------|
----------------------------------------------------|


--0--0-----5--5--5--5-----5--10----------7-----5----|
----------------------------------------------------|
----------------------------------------------------|
----------------------------------------------------|
----------------------------------------------------|
----------------------------------------------------|


--3-----------5--3L-------3-------------------------|
----------------------------------------------------|
----------------------------------------------------|
----------------------------------------------------|
----------------------------------------------------|
----------------------------------------------------|


-----------3--3--3--------5--7--5-----7-------------|
--3--3----------------------------------------------|
----------------------------------------------------|
----------------------------------------------------|
----------------------------------------------------|
----------------------------------------------------|


--5--5--10----10-10-10----5--7-----5--7-------------|
----------------------------------------------------|
----------------------------------------------------|
----------------------------------------------------|
----------------------------------------------------|
----------------------------------------------------|


--3--3--5-----5--5--5-----7--5--------3-------------|
----------------------------------------------------|
----------------------------------------------------|
----------------------------------------------------|
----------------------------------------------------|
----------------------------------------------------|


--0--0-----5--5--5--5-----5--10----------7-----5----|
----------------------------------------------------|
----------------------------------------------------|
----------------------------------------------------|
----------------------------------------------------|
----------------------------------------------------|
 www.chordzone.org

--3-----------5--3L-------3-------------------------|
----------------------------------------------------|
----------------------------------------------------|
----------------------------------------------------|
----------------------------------------------------|
----------------------------------------------------|


----------------------------|
----------------------------|
--------0--0--------0--0----|
--4-------------------------|
----------------------------|
----------------------------|


--10----------------------7-----------10----------------7-----------------3-----
--------------------------------------------------------------------------------
--------------------------------------------------------------------------------
--------------------------------------------------------------------------------
--------------------------------------------------------------------------------
--------------------------------------------------------------------------------


---------------------5--------2-----------------3-------------------|
--------------------------------------------------------------------|
--------------------------------------------------------------------|
--------------------------------------------------------------------|
--------------------------------------------------------------------|
--------------------------------------------------------------------|


--10-------7--10----7-----3--------5--2-----3-------|
----------------------------------------------------|
----------------------------------------------------|
----------------------------------------------------|
----------------------------------------------------|
----------------------------------------------------|


--2--2-----3--5--------5--2-----2-----5--5----------|
----------------------------------------------------|
----------------------------------------------------|
----------------------------------------------------|
----------------------------------------------------|
----------------------------------------------------|


--10-10-------7--5--------3--------5--2--3L---------|--3-------------|
----------------------------------------------------|----------------|
----------------------------------------------------|----------------|
----------------------------------------------------|----------------|
----------------------------------------------------|----------------|
----------------------------------------------------|----------------|


--10----------------------7-----------10----------------7-----------------3-----
--------------------------------------------------------------------------------
--------------------------------------------------------------------------------
--------------------------------------------------------------------------------
--------------------------------------------------------------------------------
--------------------------------------------------------------------------------


---------------------5--------2-----------------3-------------------|
--------------------------------------------------------------------|
--------------------------------------------------------------------|
--------------------------------------------------------------------|
--------------------------------------------------------------------|
--------------------------------------------------------------------|


--10-------7--10----7-----3--------5--2-----3-------|
----------------------------------------------------|
----------------------------------------------------|
----------------------------------------------------|
----------------------------------------------------|
----------------------------------------------------|


--2--2-----3--5--------5--2--------3--5--5----------|
----------------------------------------------------|
----------------------------------------------------|
----------------------------------------------------|
----------------------------------------------------|
----------------------------------------------------|


--10-10-------7--5--------3--------5--2--3L---------|--3-------------|
----------------------------------------------------|----------------|
----------------------------------------------------|----------------|
----------------------------------------------------|----------------|
----------------------------------------------------|----------------|
----------------------------------------------------|----------------|


--10----10----10-7--5-----5-----3-----2--3--3-------|
----------------------------------------------------|
----------------------------------------------------|
----------------------------------------------------|
----------------------------------------------------|
----------------------------------------------------|


--10----10----10-7--5-----5-----3-----2--3--3-------|
----------------------------------------------------|
----------------------------------------------------|
----------------------------------------------------|
----------------------------------------------------|
----------------------------------------------------|


--12-------------------12-------------12-------------8--------------------10----
--------------------------------------------------------------------------------
--------------------------------------------------------------------------------
--------------------------------------------------------------------------------
--------------------------------------------------------------------------------
--------------------------------------------------------------------------------


------------10----------------10-------7----------------------------|
--------------------------------------------------------------------|
--------------------------------------------------------------------|
--------------------------------------------------------------------|
--------------------------------------------------------------------|
--------------------------------------------------------------------|


--5-----7-----8-----8-----5--------2--3-------------|
----------------------------------------------------|
----------------------------------------------------|
----------------------------------------------------|
----------------------------------------------------|
----------------------------------------------------|


--10-------------------10-------------10-------7--------5-----------------5-----
--------------------------------------------------------------------------------
--------------------------------------------------------------------------------
--------------------------------------------------------------------------------
--------------------------------------------------------------------------------
--------------------------------------------------------------------------------


------------3-----------------2--------3-----------------3----------|
--------------------------------------------------------------------|
--------------------------------------------------------------------|
--------------------------------------------------------------------|
--------------------------------------------------------------------|
--------------------------------------------------------------------|


--10-------------------10-------------10-------7--------5-----------------5-----
--------------------------------------------------------------------------------
--------------------------------------------------------------------------------
--------------------------------------------------------------------------------
--------------------------------------------------------------------------------
--------------------------------------------------------------------------------


------------3-----------------2--------3-----------------3----------|
--------------------------------------------------------------------|
--------------------------------------------------------------------|
--------------------------------------------------------------------|
--------------------------------------------------------------------|
--------------------------------------------------------------------|


--12-------------------12-------------12-------------8--------------------10----
--------------------------------------------------------------------------------
--------------------------------------------------------------------------------
--------------------------------------------------------------------------------
--------------------------------------------------------------------------------
--------------------------------------------------------------------------------


------------10----------------10-------7----------------------------|
--------------------------------------------------------------------|
--------------------------------------------------------------------|
--------------------------------------------------------------------|
--------------------------------------------------------------------|
--------------------------------------------------------------------|


--5-----7-----8--8--------5-----2-----3-------------||
----------------------------------------------------||
----------------------------------------------------||
----------------------------------------------------||
----------------------------------------------------||
----------------------------------------------------||


Recommended for you:


Click to rate this post!
[Total: 0 Average: 0]

To The Top Get The Guitar Tabs

See Also