TAYLOR SWIFT feat BON IVER – Exile Guitar Tab

Enable Light Mode
#
A+
A-

This song is from the album folklore(2020), released on 24 July 2020.
This album was produced by Aaron Dessner. It is originally in the key of Gb Major. You can change it to any key you want, using the Transpose option. The average tempo is 72 BPM. These chords are simple and easy to play on the guitar or piano.

Click here for the chords and lyrics version

 
Original Key: Gb Major
Time Signature: 4/4
Tempo: 72
Suggested Strumming: DU,DU,DU,DU
c h o r d  z o n e . o r g
  


E |----------------------------------------------------|
B |--------0--0--0-----0--3L-3L----30-------0L---------|
G |--------------------------------------2-------------|
D |----------------------------------------------------|
A |----------------------------------------------------|
E |----------------------------------------------------|


----------------------------------------------------|
--0-------------------------------------------------|
--------0--0--0-----0--2--------0--------0L---------|
--------------------------------------2-------------|
----------------------------------------------------|
----------------------------------------------------|


----------------------------------------------------|-------|
--------0--0--0-----0--3L-3L----30------------------|-------|
--0-----------------------------------2-----0--0L---|--0L---|
----------------------------------------------------|-------|
----------------------------------------------------|-------|
----------------------------------------------------|-------|


----------------------------------------------------|
--------0--0--0-----0--3L-3L----30-------0L---------|
--0-----------------------------------2-------------|
----------------------------------------------------|
----------------------------------------------------|
----------------------------------------------------|


----------------------------------------------------|
--0-------------------------------------------------|
--------0--0--0-----0--2--------0--------0L---------|
--------------------------------------2-------------|
----------------------------------------------------|
----------------------------------------------------|


----------------------------------------------------|----------|
--------0--0--0-----0--3L-3L----30------------------|----------|
--0-----------------------------------2--0--0--0L---|--0-------|
----------------------------------------------------|----------|
----------------------------------------------------|----------|
----------------------------------------------------|----------|


----------------------------------------------------|
--------0-----------0-----------0-------------------|
--------------0-----------0-----------0--------0L---|
--------------------------------------------4-------|
----------------------------------------------------|
----------------------------------------------------|

 www.chordzone.org
----------------------------------------------------|
----------------------------------------------------|
--0L----------------0-----------------------0L------|
-----------------------4--4--4--4--4--4-------------|
----------------------------------------------------|
----------------------------------------------------|


----------------------------------------------------|
--------0-----------0-----------0-------------------|
--0-----------0-----------0-----------0--------0L---|
--------------------------------------------4-------|
----------------------------------------------------|
----------------------------------------------------|


----------------------------------------------------|
----------------------------------------------------|
--0-------------------------------------------------|
-----2L-------2-----------4--4--4--4--4L-4--5-------|
----------------------------------------------------|
----------------------------------------------------|


----------------------------------------------------|
--------------1--1--1-------------------------------|
--------------------------2L----2-----0--2--2-------|
----------------------------------------------------|
--3-------------------------------------------------|
----------------------------------------------------|


----------------------------|
--0--0--0--3----------------|
--------------0L------------|
----------------------------|
----------------------------|
----------------------------|


----------------------------------------------------|----------|
-----------------------0----------------------------|----------|
--0L----------0-----0-----2-----2-----2L-2-----0L---|--0-------|
-----------------0--------------------------4-------|----------|
----------------------------------------------------|----------|
----------------------------------------------------|----------|


----------------------------------------------------|
-----------------------3L-3L----3--------0L---------|
--------------------0L-0--------4-----2-------------|
----------------------------------------------------|
----------------------------------------------------|
----------------------------------------------------|


----------------------------------------------------|
--0-------------------------------------------------|
-----------------------2--------0L-0-----0L-0-------|
--------------------2-----------------2-------------|
----------------------------------------------------|
----------------------------------------------------|


--------------------------------------------------------------------------------
-----------------------------------------------------------------3L-------------
--------------------------------------------------------0L-------0L-------0L----
--------------------------------------------------------------------------------
--------------------------------------------------------------------------------
--------------------------------------------------------------------------------


--------------------------------------------------------------------|
------------0--------------------------0----------------------------|
0L----------0-----------------2-------------------------------------|
--------------------------------------------------------------------|
--------------------------------------------------------------------|
--------------------------------------------------------------------|


----------------------------------------------------|
----------------------------------------------------|
-----------------------2--------0L-0-----0L-0-------|
--------------------2-----------------2-------------|
----------------------------------------------------|
----------------------------------------------------|


----------------------------------------------------|
--------0--0--0-----0--3L-3L----30-------0L---------|
--------------------------------------2-------------|
----------------------------------------------------|
----------------------------------------------------|
----------------------------------------------------|


----------------------------------------------------|
--0-------------------------------------------------|
--------0--0--0-----0--2--------0--------0L---------|
--------------------------------------2-------------|
----------------------------------------------------|
----------------------------------------------------|
 www.chordzone.org

----------------------------------------------------|----------------|
--------0--0--0-----0--3L-3L----30------------------|----------------|
--0-----------------------------------2-----0--0L---|--0-------------|
----------------------------------------------------|----------------|
----------------------------------------------------|----------------|
----------------------------------------------------|----------------|


----------------------------------------------------|
--------0--0--0-----0--3L-3L----30-------0L---------|
--------------------------------------2-------------|
----------------------------------------------------|
----------------------------------------------------|
----------------------------------------------------|


----------------------------------------------------|
--0-------------------------------------------------|
--------0--0--0-----0--2--------0--------0L---------|
--------------------------------------2-------------|
----------------------------------------------------|
----------------------------------------------------|


----------------------------------------------------|----------|
--------0--0--0-----0--3L-3L----30------------------|----------|
--0-----------------------------------2--0--0--0L---|--0-------|
----------------------------------------------------|----------|
----------------------------------------------------|----------|
----------------------------------------------------|----------|


----------------------------------------------------|
--------0-----------0-----------0-------------------|
--------------0-----------0-----------0--------0L---|
--------------------------------------------4-------|
----------------------------------------------------|
----------------------------------------------------|


----------------------------------------------------|
----------------------------------------------------|
--0-----------------------------------------0L-0L---|
-----------------------4--4--4--4--4--4-------------|
----------------------------------------------------|
----------------------------------------------------|


----------------------------------------------------|
--------0-----------0-----------0-------------------|
--0-----------0-----------0-----------0-------------|
--------------------------------------------4--5L---|
----------------------------------------------------|
----------------------------------------------------|


----------------------------------------------------|
----------------------------------------------------|
----------------------------------------------------|
--5--2L-------2-----------4--4--4--4--4L-4--5-------|
----------------------------------------------------|
----------------------------------------------------|


----------------------------------------------------|
--------------1--1--1-------------------------------|
--------------------------2L----2-----0--2--2-------|
----------------------------------------------------|
--3-------------------------------------------------|
----------------------------------------------------|


----------------------------|
--0--0--0L-0----------------|
-----------7--0-------------|
----------------------------|
----------------------------|
----------------------------|


----------------------------------------------------|
-----------------------0----------------------------|
--------------------0-----2-----2-----2L-2-----0L---|
-----------------0--------------------------4-------|
----------------------------------------------------|
----------------------------------------------------|


--------------------------2--2--2--2--2-----3L------|
--------------------3--3----------------------------|
--0-------------------------------------------------|
----------------------------------------------------|
----------------------------------------------------|
----------------------------------------------------|


--3--------------3--7--10---|
----------------------------|
----------------------------|
----------------------------|
----------------------------|
----------------------------|


--12----------------------------3--3--7-----10------|
----------------------------------------------------|
----------------------------------------------------|
----------------------------------------------------|
----------------------------------------------------|
----------------------------------------------------|


--12----------------------10-------8-----------3----|
-----------------------8-----------12-10------------|
----------------------------------------------------|
----------------------------------------------------|
----------------------------------------------------|
----------------------------------------------------|


--5-----7--5L-5-------------|
-----8--10-8-----3L-3-------|
----------------------------|
----------------------------|
----------------------------|
----------------------------|


--------------------------10-10-10-10-10----10------|
-----------------------8----------------------------|
----------------------------------------------------|
----------------------------------------------------|
----------------------------------------------------|
----------------------------------------------------|


--3L----------------3--3--10-10-10-10-10----10------|
----------------------------------------------------|
----------------------------------------------------|
----------------------------------------------------|
----------------------------------------------------|
----------------------------------------------------|


--3L----------------3--3--10-10-10-10-10----10------|
----------------------------------------------------|
----------------------------------------------------|
----------------------------------------------------|
----------------------------------------------------|
----------------------------------------------------|


--10-12L------12----------------10-12-------10------|
----------------------------------------------------|
----------------------------------------------------|
----------------------------------------------------|
----------------------------------------------------|
----------------------------------------------------|


--10----7-----5-----3--3--10-10-10-10-10----10------|
----------------------------------------------------|
----------------------------------------------------|
----------------------------------------------------|
----------------------------------------------------|
----------------------------------------------------|


--------------------------10-10-10-10-10----10------|
--8--------------------8----------------------------|
----------------------------------------------------|
----------------------------------------------------|
----------------------------------------------------|
----------------------------------------------------|


--------------------------10-10-10-10-10----10------|
--8--------------------8----------------------------|
----------------------------------------------------|
----------------------------------------------------|
----------------------------------------------------|
----------------------------------------------------|


--10-12L------12----------------------------3-------|
----------------------------------------------------|
----------------------------------------------------|
----------------------------------------------------|
----------------------------------------------------|
----------------------------------------------------|


--3-----7-----2-----3--3L---|--3-----7-----2-----3--2L---|
----------------------------|----------------------------|
----------------------------|----------------------------|
----------------------------|----------------------------|
----------------------------|----------------------------|
----------------------------|----------------------------|


--2-----------------------2--2--2--2--2-----2--2L---|
-----5--3L----3-------------------------------------|
----------------------------------------------------|
----------------------------------------------------|
----------------------------------------------------|
----------------------------------------------------|


--2--3L-3-------------------|
----------------------------|
----------------------------|
----------------------------|
----------------------------|
----------------------------|


----------------------------------------------------|
--------0-----------0-----------0-------------------|
--------------0-----------0-----------0--------0L---|
--------------------------------------------4-------|
----------------------------------------------------|
----------------------------------------------------|


----------------------------------------------------|
----------------------------------------------------|
--0L----------------0-----------------------0L------|
-----------------------4--4--4--4--4--4-------------|
----------------------------------------------------|
----------------------------------------------------|


----------------------------------------------------|
--------0-----------0-----------0-------------------|
--0-----------0-----------0-----------0-------------|
--------------------------------------------4--5L---|
----------------------------------------------------|
----------------------------------------------------|


----------------------------------------------------|
----------------------------------------------------|
----------------------------------------------------|
--5--2L-------2-----------4--4--4--4--4L-4--5-------|
----------------------------------------------------|
----------------------------------------------------|


----------------------------------------------------|
--------------1--1--1-------------------------------|
--------------------------2L----2-----0--2--2-------|
----------------------------------------------------|
--3-------------------------------------------------|
----------------------------------------------------|


----------------------------|
--0--0--0--3----------------|
--------------0L------------|
----------------------------|
----------------------------|
----------------------------|


----------------------------------------------------|-------||
-----------------------0----------------------------|-------||
--0-----------------0-----2-----2-----2L-2-----0L---|--0----||
-----------------0--------------------------4-------|-------||
----------------------------------------------------|-------||
----------------------------------------------------|-------||

Recommended for you:


Click to rate this post!
[Total: 0 Average: 0]

To The Top Get The Guitar Tabs

See Also