Now Reading
GRANDMASTER – Akaleyo Nee Guitar Tabs

GRANDMASTER – Akaleyo Nee Guitar Tabs

Enable Light Mode
#
A+
A-

This song is from the movie Grandmaster(2012), released on 3 May 2012 starring Mohanlal & Priyamani. The vocals are by Vijay Yesudas. The music is produced by Deepak Dev, and the lyrics are written by Chitoor Gopi.
It is originally in the key of B Major. You can change it to any key you want, using the Transpose option. The average tempo is 74 BPM. These chords are simple and easy to play on the guitar or piano.
Vocals: Vijay Yesudas,
Producer(s): Deepak Dev,
Writer(s): Chitoor Gopi,

Click here for the chords and lyrics version

 
Original Key: B Major
Time Signature: 4/4
Tempo: 74
Suggested Strumming: DU,DU,DU,DU
c h o r d  z o n e . o r g
 
E |-------|----------------------------------------------------|
B |-------|----------------------------------------------------|
G |-------|--------0--0L-0-----------------------2-------------|
D |-------|--2--3----------------------------------------------|
A |-------|----------------------------------------------------|
E |-------|----------------------------------------------------|


----------------------------------------------------|
----------------------------------------------------|
--------0--0L-0-------------------------------------|
--2--3----------------------------------------------|
----------------------------------------------------|
----------------------------------------------------|


----------------------------------------------------|
--------------------------1-----------------1-------|
--------0--0L-0-----------------------2-------------|
--2--3----------------------------------------------|
----------------------------------------------------|
----------------------------------------------------|


----------------------------------------------------|
--------------------------------------------1--3----|
--------0--0L-0-------------------------------------|
--2--3----------------------------------------------|
----------------------------------------------------|
----------------------------------------------------|


--1-----1--0--0-------------------------------------|
-----------------3--3--1--1--------------1--1-------|
--------------------------------2-----2-------------|
----------------------------------------------------|
----------------------------------------------------|
----------------------------------------------------|


----------------------------------------------------|
--1--------0--------0L----0-----------------1--3----|
----------------------------------------------------|
----------------------------------------------------|
----------------------------------------------------|
----------------------------------------------------|


--1-----1--0--1--1--1--0--1--0-----------------0----|
--------------------------------3--1--------1-------|
----------------------------------------------------|
----------------------------------------------------|
----------------------------------------------------|
----------------------------------------------------|


--------------------------------------0-----1-------|
--3--1--0L----0--------------------------3----------|
-----------------------2--0-------------------------|
----------------------------------------------------|
----------------------------------------------------|
----------------------------------------------------|


--0-------------------------------------------------|
--------------1-----------------------------1-------|
--------------------------2-----------2--2----------|
----------------------------------------------------|
----------------------------------------------------|
----------------------------------------------------|


----------------------------------------------------|
--------------------------------------------1-------|
--------------0-----------------------0--0----------|
--2-------------------------------------------------|
----------------------------------------------------|
----------------------------------------------------|


--------------------0--1--0-------------------------|
--3-----------------------------3-----0--0--3-------|
----------------------------------------------------|
----------------------------------------------------|
----------------------------------------------------|
----------------------------------------------------|


----------------------------|
-----1L-1-------------------|
----------------------------|
----------------------------|
----------------------------|
----------------------------|


----------------------------------------------------|
----------------------------------------------------|
--------0--0L-0-----------------------2-------------|
--2--3----------------------------------------------|
----------------------------------------------------|
----------------------------------------------------|

 www.chordzone.org
----------------------------------------------------|
----------------------------------------------------|
--------0--0L-0-------------------------------------|
--2--3----------------------------------------------|
----------------------------------------------------|
----------------------------------------------------|


----------------------------------------------------|
--------------------------1-----------------1-------|
--------0--0L-0-----------------------2-------------|
--2--3----------------------------------------------|
----------------------------------------------------|
----------------------------------------------------|


-----------------------------------------3-----1----|
----------------------------------------------------|
--------0--0L-0-------------------------------------|
--2--3----------------------------------------------|
----------------------------------------------------|
----------------------------------------------------|


--0--------------3-----1--0-----------------0-------|
-----------3----------------------------------------|
----------------------------------------------------|
----------------------------------------------------|
----------------------------------------------------|
----------------------------------------------------|


-----0--1--3--1--0--------0L----------0--3-----1----|
--3-----------------1-------------------------------|
----------------------------------------------------|
----------------------------------------------------|
----------------------------------------------------|
----------------------------------------------------|


--0--------------3-----1--0-----------------0-------|
-----------3----------------------------------------|
----------------------------------------------------|
----------------------------------------------------|
----------------------------------------------------|
----------------------------------------------------|


--1-----0--------------------------------3-----1----|
-----------3--1-----0-----1-------------------------|
----------------------------------------------------|
----------------------------------------------------|
----------------------------------------------------|
----------------------------------------------------|


--0--------------3-----1--0-----------------0-------|
-----------3----------------------------------------|
----------------------------------------------------|
----------------------------------------------------|
----------------------------------------------------|
----------------------------------------------------|
 
 www.chordzone.org

-----0--1--3--1--0--------0L----------0--3-----1----|
--3-----------------1-------------------------------|
----------------------------------------------------|
----------------------------------------------------|
----------------------------------------------------|
----------------------------------------------------|


--0--------------3-----1--0-----------------0-------|
-----------3----------------------------------------|
----------------------------------------------------|
----------------------------------------------------|
----------------------------------------------------|
----------------------------------------------------|


--1-----0-------------------------------------------|
-----------3--1-----0-----1-----------------1--3----|
----------------------------------------------------|
----------------------------------------------------|
----------------------------------------------------|
----------------------------------------------------|


--1-----1--0--0-------------------------------------|
-----------------3--3--1--1--------------1--1-------|
--------------------------------2-----2-------------|
----------------------------------------------------|
----------------------------------------------------|
----------------------------------------------------|


----------------------------------------------------|
--1--------0--------0L----0--------------------1----|
--------------------------------------------2-------|
----------------------------------------------------|
----------------------------------------------------|
----------------------------------------------------|


----------------------------------------------------|
--3-----3--1--3--3--3--1--1-------------------------|
--------------------------------0--------0--2-------|
--------------------------------------3-------------|
----------------------------------------------------|
----------------------------------------------------|


--------------------------------------0-----1-------|
-----------------------------------------3----------|
--0-------------------------------------------------|
----------------------------------------------------|
----------------------------------------------------|
----------------------------------------------------|


--0-------------------------------------------------|
--------------1-----------------------------1-------|
--------------------------2-----------2--2----------|
----------------------------------------------------|
----------------------------------------------------|
----------------------------------------------------|


----------------------------------------------------|
--------------------------------------------1-------|
--------------0-----------------------0--0----------|
--2-------------------------------------------------|
----------------------------------------------------|
----------------------------------------------------|


--------------------0--1--0-------------------------|
--3-----------------------------3-----0--0--3-------|
----------------------------------------------------|
----------------------------------------------------|
----------------------------------------------------|
----------------------------------------------------|


----------------------------|
-----1L-1-------------------|
----------------------------|
----------------------------|
----------------------------|
----------------------------|


----------------------------------------------------|
----------------------------------------------------|
--------0--0L-0-----------------------2-------------|
--2--3----------------------------------------------|
----------------------------------------------------|
----------------------------------------------------|


----------------------------------------------------|
----------------------------------------------------|
--------0--0L-0-------------------------------------|
--2--3----------------------------------------------|
----------------------------------------------------|
----------------------------------------------------|


----------------------------------------------------|
--------------------------1-----------------1-------|
--------0--0L-0-----------------------2-------------|
--2--3----------------------------------------------|
----------------------------------------------------|
----------------------------------------------------|


----------------------------------------------------||
----------------------------------------------------||
--------0--0L-0-------------------------------------||
--2--3----------------------------------------------||
----------------------------------------------------||
----------------------------------------------------||


Recommended for you:


Click to rate this post!
[Total: 0 Average: 0]

To The Top Get The Guitar Tabs

See Also