Now Reading
JUSTIN BIEBER feat BENNY BLANCO – Lonely Guitar Tabs and Video Tutorial

JUSTIN BIEBER feat BENNY BLANCO – Lonely Guitar Tabs and Video Tutorial

Enable Light Mode
#
A+
A-

This single was released on 06 October 2009. The vocals are by Justin Bieber , Benny Blanco . The music is produced by ​benny blanco , FINNEAS, and the lyrics are written by Justin Bieber, ​benny blanco , FINNEAS.
It is originally in the key of B Minor. The average tempo is 80 BPM. You can use the Boost Tines preset in HalionOne to get a sound similar to the one used in the track.

Click here for the chords and lyrics version

 
Original Key: B Minor
Time Signature: 4/4
Tempo: 80
Suggested Strumming: DU,DU,DU,DU
c h o r d  z o n e . o r g
 

--------------1--3--1-----1-----3-------------------|
-----------------------4--------------4L-------4----|
-----------------------------------------------3L---|
----------------------------------------------------|
----------------------------------------------------|
----------------------------------------------------|


----------------------------------------------------|
--------------6--4--6--4--6-----8-----4-------------|
--3-------------------------------------------------|
----------------------------------------------------|
----------------------------------------------------|
----------------------------------------------------|


----------------------------------------------------|
--------------6--4--6--4--6--4--6--4--6--6-----4----|
----------------------------------------------------|
----------------------------------------------------|
----------------------------------------------------|
----------------------------------------------------|


----------------------------------------------------|
--------------6--6--6--4L-4-------------------------|
-----3--3--3----------------------------------------|
----------------------------------------------------|
----------------------------------------------------|
----------------------------------------------------|


----------------------------------------------------|
--------------6--4--6--4--6-----8--4L-4L----4-------|
--------------------------------------------3-------|
----------------------------------------------------|
----------------------------------------------------|
----------------------------------------------------|


----------------------------------------------------|
--------------6--4--6--4--6-----8--4L-4-------------|
----------------------------------------------------|
----------------------------------------------------|
----------------------------------------------------|
----------------------------------------------------|


----------------------------------------------------|
--------------6--4--6--4--6--6--6--4--6--6--6--4L---|
----------------------------------------------------|
----------------------------------------------------|
----------------------------------------------------|
----------------------------------------------------|


----------------------------------------------------|
--4-----------6--6--6--4----------------------------|
--------3--3----------------------------------------|
----------------------------------------------------|
----------------------------------------------------|
----------------------------------------------------|


--------------------6--8-----11----16-------15-10L--|
----------------------------------------------------|
----------------------------------------------------|
----------------------------------------------------|
----------------------------------------------------|
----------------------------------------------------|


--10-------------------6-----10----16-------15-10L--|
----------------------------------------------------|
----------------------------------------------------|
----------------------------------------------------|
----------------------------------------------------|
----------------------------------------------------|


--10-------------------6-----10----15-------10-10L--|
----------------------------------------------------|
----------------------------------------------------|
----------------------------------------------------|
----------------------------------------------------|
----------------------------------------------------|


--10-8----------------------|
----------------------------|
----------------------------|
----------------------------|
----------------------------|
----------------------------|


--------------------6--8-----11----16-------15-10L--|
----------------------------------------------------|
----------------------------------------------------|
----------------------------------------------------|
----------------------------------------------------|
----------------------------------------------------|


--10-------------------------10----16L16------------|
--------------------11-11----------------------15L--|
----------------------------------------------------|
----------------------------------------------------|
----------------------------------------------------|
----------------------------------------------------|


--------------------------------10----15----16-15L--|
--15----------------------11------------------------|
----------------------------------------------------|
----------------------------------------------------|
----------------------------------------------------|
----------------------------------------------------|


--15-------------------------------16----15---------|
--------13------------------------------------------|
----------------------------------------------------|
----------------------------------------------------|
----------------------------------------------------|
----------------------------------------------------|


--11-------15-11-------15-11-------15-11-------10---|--10------------|
----------------------------------------------------|----------------|
----------------------------------------------------|----------------|
----------------------------------------------------|----------------|
----------------------------------------------------|----------------|
----------------------------------------------------|----------------|


-----------15----------15----------15---------------|----------------|
--15----------15----------15----------15-------13---|--13------------|
----------------------------------------------------|----------------|
----------------------------------------------------|----------------|
----------------------------------------------------|----------------|
----------------------------------------------------|----------------|


--------------13-11-13-11-13----13-15-11------------|
-----------------------------------------------11---|
----------------------------------------------------|
----------------------------------------------------|
----------------------------------------------------|
----------------------------------------------------|


--------------13-11-13-11-13----13-15-11------------|
----------------------------------------------------|
----------------------------------------------------|
----------------------------------------------------|
----------------------------------------------------|
----------------------------------------------------|


--------------13-11-13-11-13----13-15-11------------|
-----------------------------------------------11---|
----------------------------------------------------|
----------------------------------------------------|
----------------------------------------------------|
----------------------------------------------------|


--13-13-15-11-------------13----15-11L11------------|
--------------------11-11---------------------------|
----------------------------------------------------|
----------------------------------------------------|
----------------------------------------------------|
----------------------------------------------------|


--------------13-11-13-11-13----13-15-11------------|
-----------------------------------------------11---|
----------------------------------------------------|
----------------------------------------------------|
----------------------------------------------------|
----------------------------------------------------|


--------------13-11-13-11-13----13-15-11------------|
----------------------------------------------------|
----------------------------------------------------|
----------------------------------------------------|
----------------------------------------------------|
----------------------------------------------------|


--------------13-11-13-11-13----13-15-11------------|
-----------------------------------------------11---|
----------------------------------------------------|
----------------------------------------------------|
----------------------------------------------------|
----------------------------------------------------|


--13-13-15-11L11------------------------------------|
----------------------------------------------------|
----------------------------------------------------|
----------------------------------------------------|
----------------------------------------------------|
----------------------------------------------------|


-----------------------------11----16-------15-10L--|
--------------------11-13---------------------------|
----------------------------------------------------|
----------------------------------------------------|
----------------------------------------------------|
----------------------------------------------------|


--10-------------------------10----16-------15-10L--|
--------------------11-11---------------------------|
----------------------------------------------------|
----------------------------------------------------|
----------------------------------------------------|
----------------------------------------------------|


--10-------------------------10----15-------10-10L--|
-----------------------11---------------------------|
----------------------------------------------------|
----------------------------------------------------|
----------------------------------------------------|
----------------------------------------------------|


--10-8----------------------|
----------------------------|
----------------------------|
----------------------------|
----------------------------|
----------------------------|


-----------------------------11----16-------15-10L--|
--------------------11-13---------------------------|
----------------------------------------------------|
----------------------------------------------------|
----------------------------------------------------|
----------------------------------------------------|


--10-------------------------10----16-------15-10L--|
-----------------------11---------------------------|
----------------------------------------------------|
----------------------------------------------------|
----------------------------------------------------|
----------------------------------------------------|


--10-------------------------10----15-------16-15L--|
-----------------------11---------------------------|
----------------------------------------------------|
----------------------------------------------------|
----------------------------------------------------|
----------------------------------------------------|


--15-------------------------------16----15---------|
--------13------------------------------------------|
----------------------------------------------------|
----------------------------------------------------|
----------------------------------------------------|
----------------------------------------------------|


--11-------15-11-------15-11-------15-11------------|--10------------|
----------------------------------------------------|----------------|
----------------------------------------------------|----------------|
----------------------------------------------------|----------------|
----------------------------------------------------|----------------|
----------------------------------------------------|----------------|


--10-------15-10-------15-10-------15-10------------|
-----------------------------------------------13---|
----------------------------------------------------|
----------------------------------------------------|
----------------------------------------------------|
----------------------------------------------------|


-----------------------------------16----15---------|
--13------------------------------------------------|
----------------------------------------------------|
----------------------------------------------------|
----------------------------------------------------|
----------------------------------------------------|


--11-------15-11-------15-11-------15-11-------10---|--10------------|
----------------------------------------------------|----------------|
----------------------------------------------------|----------------|
----------------------------------------------------|----------------|
----------------------------------------------------|----------------|
----------------------------------------------------|----------------|


--10-------15-10-------15-10-------15-10------------|
--------------------------------------------13------|
----------------------------------------------------|
----------------------------------------------------|
----------------------------------------------------|
----------------------------------------------------|


----------------------------|-------||
--13------------------------|-------||
----------------------------|-------||
----------------------------|-------||
----------------------------|-------||
----------------------------|-------||


Recommended for you:


Click to rate this post!
[Total: 0 Average: 0]

To The Top Get The Guitar Tabs

See Also