skip to content

IMAGINE DRAGONS – Demons Guitar Tabs

#
A+
A-

This song is from the album Night Visions(2012), released on 14 February 2012. The vocals are by Dan Reynolds, the music is produced by Alex da Kid, Daniel Platzman, Wayne Sermon, Dan Reynolds, Ben McKee. Josh Mosser, and the lyrics are written by Alex da Kid.
This song is originally in the key of Eb Major. You can change it to any key you want, using the Transpose option. The average tempo is 90 BPM. These chords are simple and easy to play on the guitar, ukulele or piano.

Click here for the chords and lyrics version

 
Original Key: Eb Major
Time Signature: 4/4
Tempo: 90
Suggested Strumming: DU,DU,DU,DU
c h o r d  z o n e . o r g
 

E |-------|-----10-9--10----10-9--10---|-----10-9--10----10-9--10---|
B |-------|--10----------10------------|--10----------10------------|
G |-------|----------------------------|----------------------------|
D |-------|----------------------------|----------------------------|
A |-------|----------------------------|----------------------------|
E |-------|----------------------------|----------------------------|


--7--10-9--10-7--10-9--10---|-----10-9--10-3--------5L---|
----------------------------|--8--------------3--3-------|
----------------------------|----------------------------|
----------------------------|----------------------------|
----------------------------|----------------------------|
----------------------------|----------------------------|


--5-----2-----0--------5L---|--5-----2-----0--------7L---|
-----------------3--3-------|-----------------3--3-------|
----------------------------|----------------------------|
----------------------------|----------------------------|
----------------------------|----------------------------|
----------------------------|----------------------------|


www.chordzone.org
 
--7--------------------3L---|--3--3L-3--3L-3--------5L---|
--------7-----5--3--3-------|-----------------3--3-------|
----------------------------|----------------------------|
----------------------------|----------------------------|
----------------------------|----------------------------|
----------------------------|----------------------------|


--5-----2-----0--------5L---|--5-----2-----0--------7L---|
-----------------3--3-------|-----------------3--3-------|
----------------------------|----------------------------|
----------------------------|----------------------------|
----------------------------|----------------------------|
----------------------------|----------------------------|


--7--------------------3L---|--3--3L-3--3L-3--2L-2-------|
--------7-----5--3--3-------|----------------------------|
----------------------------|----------------------------|
----------------------------|----------------------------|
----------------------------|----------------------------|
----------------------------|----------------------------|


--------5-----5-----5-----5-----------------5L------|
-----------------------------------7----------------|
----------------------------------------------------|
----------------------------------------------------|
----------------------------------------------------|
----------------------------------------------------|


--5-----5-----5-----5-----10-------9--------7L------|
----------------------------------------------------|
----------------------------------------------------|
----------------------------------------------------|
----------------------------------------------------|
----------------------------------------------------|


--7-------------------------------------------------|
--------7-----7-----7-----7--------7--------8L------|
----------------------------------------------------|
----------------------------------------------------|
----------------------------------------------------|
----------------------------------------------------|


----------------------------------------------------|
--8-----8-----8-----8-----8--------8--------7L------|
----------------------------------------------------|
----------------------------------------------------|
----------------------------------------------------|
----------------------------------------------------|

www.chordzone.org
 

--------10----10----10----10-------10-------9L------|
--7-------------------------------------------------|
----------------------------------------------------|
----------------------------------------------------|
----------------------------------------------------|
----------------------------------------------------|


--9-----9-----9-----9-----9--------9--------7L------|
----------------------------------------------------|
----------------------------------------------------|
----------------------------------------------------|
----------------------------------------------------|
----------------------------------------------------|


--7-------------------------------------------------|
--------7-----7-----7-----7--------7--------8L------|
----------------------------------------------------|
----------------------------------------------------|
----------------------------------------------------|
----------------------------------------------------|


----------------------------------------------------|
--8-----8-----8-----8-----8--------8--------7-------|
----------------------------------------------------|
----------------------------------------------------|
----------------------------------------------------|
----------------------------------------------------|


--------------14----14----17------------------------|
-----------------------------------15-------14L-----|
----------------------------------------------------|
----------------------------------------------------|
----------------------------------------------------|
----------------------------------------------------|


--------------14----14----17------------------------|
--14-------------------------------14-------12L-----|
----------------------------------------------------|
----------------------------------------------------|
----------------------------------------------------|
----------------------------------------------------|


--------14----14----14----14-------14-------15L-----|
--12------------------------------------------------|
----------------------------------------------------|
----------------------------------------------------|
----------------------------------------------------|
----------------------------------------------------|


--15----15----15----15----15-------14-------14L-----|
----------------------------------------------------|
----------------------------------------------------|
----------------------------------------------------|
----------------------------------------------------|
----------------------------------------------------|


--14----------14----14----17------------------------|
-----------------------------------15-------14L-----|
----------------------------------------------------|
----------------------------------------------------|
----------------------------------------------------|
----------------------------------------------------|


--------------14----14----17------------------------|
--14-------------------------------14-------12L-----|
----------------------------------------------------|
----------------------------------------------------|
----------------------------------------------------|
----------------------------------------------------|


--------14----14----14----14-------14-------15L-----|
--12------------------------------------------------|
----------------------------------------------------|
----------------------------------------------------|
----------------------------------------------------|
----------------------------------------------------|


--15----15----15----15----15-------14-------14L-----|--14------------||
----------------------------------------------------|----------------||
----------------------------------------------------|----------------||
----------------------------------------------------|----------------||
----------------------------------------------------|----------------||
----------------------------------------------------|----------------||


Recommended for you:


'); const image = $('YouTube Thumbnail'); const playButton = $('
'); wrapper.append(image); wrapper.append(playButton); iframe.replaceWith(wrapper); wrapper.click(function () { const newIframe = $('

POPULAR SONGS

RELATED SONGS