Now Reading
JEREMY ZUCKER, CHELSEA CUTLER – You Were Good To Me Guitar Tabs

JEREMY ZUCKER, CHELSEA CUTLER – You Were Good To Me Guitar Tabs

Enable Light Mode
#
A+
A-

This song is from the album brent(2019), released on 19 April 2019. The vocals are by Jeremy Zucker, Chelsea Cutler, the music is produced by Jeremy Zucker, Chelsea Cutler, and the lyrics are written by Jeremy Zucker, Chelsea Cutler .
This song is originally in the key of D Major. You can change it to any key you want, using the Transpose option. The average tempo is 105 BPM. These chords are simple and easy to play on the guitar, ukulele or piano.

Click here for the chords and lyrics version

 
Original Key: D Major
Time Signature: 4/4
Tempo: 105
Suggested Strumming: DU,DU,DU,DU
c h o r d  z o n e . o r g
 

E |-----0-----2L---|--2-------|-----0-----2L---|--2--------------------5L---|
B |--3-----2-------|----------|--3-----2-------|----------------------------|
G |----------------|----------|----------------|----------------------------|
D |----------------|----------|----------------|----------------------------|
A |----------------|----------|----------------|----------------------------|
E |----------------|----------|----------------|----------------------------|


--5-------------|-----------0--2--3--2--2L---|--2--0L-0-------------------|
-----3----------|--------3-------------------|----------------------------|
----------------|----------------------------|----------------------------|
----------------|----------------------------|----------------------------|
----------------|----------------------------|----------------------------|
----------------|----------------------------|----------------------------|


-----------------------5L---|--5-------------|-----------0--2--3--2--2L---|
----------------------------|-----3----------|--------3-------------------|
----------------------------|----------------|----------------------------|
----------------------------|----------------|----------------------------|
----------------------------|----------------|----------------------------|
----------------------------|----------------|----------------------------|

www.chordzone.org
 

--2--0L-0-------------------|----------------------------|
----------------------------|--------------------3--3----|
----------------------------|----------------------------|
----------------------------|----------------------------|
----------------------------|----------------------------|
----------------------------|----------------------------|


--7--5--2--0--2L------------|--2-------------------------|
----------------------------|--------------------3--3----|
----------------------------|----------------------------|
----------------------------|----------------------------|
----------------------------|----------------------------|
----------------------------|----------------------------|


--7--5--2--0--2-------------|--0-----------------2--0----|
----------------------------|----------------------------|
----------------------------|----------------------------|
----------------------------|----------------------------|
----------------------------|----------------------------|
----------------------------|----------------------------|


--0-------------------------|--------------------2--0----|
-----3--3L------------------|--3-------------------------|
----------------------------|----------------------------|
----------------------------|----------------------------|
----------------------------|----------------------------|
----------------------------|----------------------------|


--0--------------0L-------0-------------------------|----------------|
--------3-----3-----------------------3-------------|--2-------------|
----------------------------------------------------|----------------|
----------------------------------------------------|----------------|
----------------------------------------------------|----------------|
----------------------------------------------------|----------------|


-----0-----2L---|--2-----------------5--5----|--5-----------------2L------|
--3-----2-------|----------------------------|-----3--3-----2-------------|
----------------|----------------------------|----------------------------|
----------------|----------------------------|----------------------------|
----------------|----------------------------|----------------------------|
----------------|----------------------------|----------------------------|


--2-------|-----0-----2L---|--2-----------------5--5----|
----------|--3-----2-------|----------------------------|
----------|----------------|----------------------------|
----------|----------------|----------------------------|
----------|----------------|----------------------------|
----------|----------------|----------------------------|

www.chordzone.org
 

--5-----------------2L------|--2--------------------5L---|--5-------------|
-----3--3-----2-------------|----------------------------|-----3----------|
----------------------------|----------------------------|----------------|
----------------------------|----------------------------|----------------|
----------------------------|----------------------------|----------------|
----------------------------|----------------------------|----------------|


-----------0--2--3--2--2L---|--2--0L-0-------------------|
--------3-------------------|----------------------------|
----------------------------|----------------------------|
----------------------------|----------------------------|
----------------------------|----------------------------|
----------------------------|----------------------------|


-----------------------5L---|--5-------------|-----------0--2--3--2--2L---|
----------------------------|-----3----------|--------3-------------------|
----------------------------|----------------|----------------------------|
----------------------------|----------------|----------------------------|
----------------------------|----------------|----------------------------|
----------------------------|----------------|----------------------------|


--2--0L-0-------------------|----------------------------|
----------------------------|--------------------3--3----|
----------------------------|----------------------------|
----------------------------|----------------------------|
----------------------------|----------------------------|
----------------------------|----------------------------|


--7--5--2--0--2L------------|--2-------------------------|
----------------------------|--------------------3--3----|
----------------------------|----------------------------|
----------------------------|----------------------------|
----------------------------|----------------------------|
----------------------------|----------------------------|


--7--5--2--0--2-------------|--0-----------------2--0----|
----------------------------|----------------------------|
----------------------------|----------------------------|
----------------------------|----------------------------|
----------------------------|----------------------------|
----------------------------|----------------------------|


--0-------------------------|--------------------2--0----|
-----3--3L------------------|--3-------------------------|
----------------------------|----------------------------|
----------------------------|----------------------------|
----------------------------|----------------------------|
----------------------------|----------------------------|


--0--------------0L-------0-------------------------|
--------3-----3-----------------------3-------------|
----------------------------------------------------|
----------------------------------------------------|
----------------------------------------------------|
----------------------------------------------------|


----------------------------|--7--5--2--0--2L------------|
--2-----------------3--3----|----------------------------|
----------------------------|----------------------------|
----------------------------|----------------------------|
----------------------------|----------------------------|
----------------------------|----------------------------|


--2-------------------------|--7--5--2--0--2-------------|
--------------------3--3----|----------------------------|
----------------------------|----------------------------|
----------------------------|----------------------------|
----------------------------|----------------------------|
----------------------------|----------------------------|


--0-----------------2--0----|--0-------------------------|
----------------------------|-----3--3L------------------|
----------------------------|----------------------------|
----------------------------|----------------------------|
----------------------------|----------------------------|
----------------------------|----------------------------|


--------------------2--0----|
--3-------------------------|
----------------------------|
----------------------------|
----------------------------|
----------------------------|


--0--------------0L-------0-------------------------|----------------||
--------3-----3-----------------------3-------------|--2-------------||
----------------------------------------------------|----------------||
----------------------------------------------------|----------------||
----------------------------------------------------|----------------||
----------------------------------------------------|----------------||


Recommended for you:


Click to rate this post!
[Total: 0 Average: 0]