Now Reading
THE KID LAROI – Without You Guitar Tabs

THE KID LAROI – Without You Guitar Tabs

Enable Light Mode
#
A+
A-

This song is from the album F*CK LOVE (SAVAGE)(2020), released on 06 November 2020. The vocals are by The Kid Laroi , the music is produced by Billy Walsh, Blake Slatkin, Omer Fedi , The Kid LAROI, and the lyrics are written by Blake Slatkin , Omer Fedi,.
It is originally in the key of C Major. You can change it to any key you want, using the Transpose option. The average tempo is 95 BPM. These chords are simple and easy to play on the guitar, ukulele or piano.

Click here for the chords and lyrics version

 
Original Key: C Major
Time Signature: 4/4
Tempo: 95
Suggested Strumming: DU,DU,DU,DU
c h o r d  z o n e . o r g

E |----------------------------------------------------|
B |--------------------------------------1--1-----3----|
G |----------------------------------------------------|
D |----------------------------------------------------|
A |----------------------------------------------------|
E |----------------------------------------------------|


--------0-----------------------0-------------------|
--3-----------1--1-----3L-3-----------1--1-----3L---|
----------------------------------------------------|
----------------------------------------------------|
----------------------------------------------------|
----------------------------------------------------|


--------0-----------------------0-------------------|
--3-----------1--1-----3L-3-----------1-----1--0L---|
----------------------------------------------------|
----------------------------------------------------|
----------------------------------------------------|
----------------------------------------------------|


--------3L----3-------------------------------------|
--0-----------------------------------1-----1--0L---|
----------------------------------------------------|
----------------------------------------------------|
----------------------------------------------------|
----------------------------------------------------|


--------3L----3-----5-----0-------------------------|
--0-----------------------------------1--1-----3L---|
----------------------------------------------------|
----------------------------------------------------|
----------------------------------------------------|
----------------------------------------------------|


--------0-----------------------0-------------------|
--3-----------1--1-----3L-3-----------1--1-----3L---|
----------------------------------------------------|
----------------------------------------------------|
----------------------------------------------------|
----------------------------------------------------|


--------0-----------------------0-------------------|
--3-----------1--1-----3L-3-----------1-----1--0L---|
----------------------------------------------------|
----------------------------------------------------|
----------------------------------------------------|
----------------------------------------------------|


--------3L----3-------------------------------------|
--0-----------------------------------1-----1--0L---|
----------------------------------------------------|
----------------------------------------------------|
----------------------------------------------------|
----------------------------------------------------|

www.chordzone.org
 

--------3L----3-----5-----0-----------------3--0L---|
--0-----------------------------1-----1-------------|
----------------------------------------------------|
----------------------------------------------------|
----------------------------------------------------|
----------------------------------------------------|


--0--------------------------------------3-----0L---|
--------3L----3-----------1-----1-----1-------------|
----------------------------------------------------|
----------------------------------------------------|
----------------------------------------------------|
----------------------------------------------------|


--0--------------------------------------3-----0L---|
--------3-----------------1-----1-----1-------------|
----------------------------------------------------|
----------------------------------------------------|
----------------------------------------------------|
----------------------------------------------------|


--0-----------------3--0--------------------3--0L---|
--------3-----------------------3-----1-------------|
----------------------------------------------------|
----------------------------------------------------|
----------------------------------------------------|
----------------------------------------------------|


--0-----------------3--0L-0--------------3-----0L---|
-----3--------1--------------3--------1-------------|
----------------------------------------------------|
----------------------------------------------------|
----------------------------------------------------|
----------------------------------------------------|


--0--------------------------------------3-----0L---|
--------3L----3-----------1-----1-----1-------------|
----------------------------------------------------|
----------------------------------------------------|
----------------------------------------------------|
----------------------------------------------------|


--0--------------------------------------3-----0L---|
--------3-----------------1-----1-----1-------------|
----------------------------------------------------|
----------------------------------------------------|
----------------------------------------------------|
----------------------------------------------------|


--0-----------------3--0--------------------3--0L---|
--------3-----------------------3-----1-------------|
----------------------------------------------------|
----------------------------------------------------|
----------------------------------------------------|
----------------------------------------------------|


--0-------------------------------------------------|
-----3L-------3-----------------0-----0-----0-------|
----------------------------------------------------|
----------------------------------------------------|
----------------------------------------------------|
----------------------------------------------------|


-----------------------------0----------------------|
--1--------------------3L-3-----3--3-----3--1-------|
--------------0-------------------------------------|
----------------------------------------------------|
----------------------------------------------------|
----------------------------------------------------|


-----------------------------0----------------------|
--3--------------------3L-3-----3--3L-3-----1--3L---|
--------------0-------------------------------------|
----------------------------------------------------|
----------------------------------------------------|
----------------------------------------------------|


--------------------------------0-------------------|
--3-----1--1L-1-----1-----3-----------1--1-----0L---|
----------------------------------------------------|
----------------------------------------------------|
----------------------------------------------------|
----------------------------------------------------|


----------------------------------------------------|
--0-----0-----0--0-----1L-1-----------1--1-----3L---|
----------------------------------------------------|
----------------------------------------------------|
----------------------------------------------------|
----------------------------------------------------|


--------0-----------------------0-------------------|
--3-----------1--1-----3L-3-----------1--1-----3L---|
----------------------------------------------------|
----------------------------------------------------|
----------------------------------------------------|
----------------------------------------------------|


--------0-----------------------0-------------------|
--3-----------1--1-----3L-3-----------1-----1--0L---|
----------------------------------------------------|
----------------------------------------------------|
----------------------------------------------------|
----------------------------------------------------|


--------3L----3-------------------------------------|
--0-----------------------------------1-----1--0L---|
----------------------------------------------------|
----------------------------------------------------|
----------------------------------------------------|
----------------------------------------------------|


--------3L----3-----5-----0-------------------------|
--0-----------------------------------1--1-----3L---|
----------------------------------------------------|
----------------------------------------------------|
----------------------------------------------------|
----------------------------------------------------|


--------0-----------------------0-------------------|
--3-----------1--1-----3L-3-----------1--1-----3L---|
----------------------------------------------------|
----------------------------------------------------|
----------------------------------------------------|
----------------------------------------------------|


--------0-----------------------0-------------------|
--3-----------1--1-----3L-3-----------1-----1--0L---|
----------------------------------------------------|
----------------------------------------------------|
----------------------------------------------------|
----------------------------------------------------|


--------3L----3-------------------------------------|
--0-----------------------------------1-----1--0L---|
----------------------------------------------------|
----------------------------------------------------|
----------------------------------------------------|
----------------------------------------------------|


www.chordzone.org
 
-----3L-3--5--0-------------|
--0-------------------------|
----------------------------|
----------------------------|
----------------------------|
----------------------------|


-----------0-----------------------0----------------|
--1-----------3--------1-----1--------3-----1-------|
----------------------------------------------------|
----------------------------------------------------|
----------------------------------------------------|
----------------------------------------------------|


-----------0-----------------------0----------------|
--1-----------3--------1-----1--------3-----1-------|
----------------------------------------------------|
----------------------------------------------------|
----------------------------------------------------|
----------------------------------------------------|


-----------3L-3-------------------------------------|
--0-----------------------------------1-----1--0L---|
----------------------------------------------------|
----------------------------------------------------|
----------------------------------------------------|
----------------------------------------------------|


-----3L-3--5--0L------------|--0-------------------------||
--0-------------------------|----------------------------||
----------------------------|----------------------------||
----------------------------|----------------------------||
----------------------------|----------------------------||
----------------------------|----------------------------||


Recommended for you:


Click to rate this post!
[Total: 0 Average: 0]

To The Top Get The Guitar Tabs

See Also