Now Reading
NEHA – Etho Varmukilin Guitar Tabs

NEHA – Etho Varmukilin Guitar Tabs

Enable Light Mode
#
A+
A-

This single was released on 24 September 2010. The vocals are by Neha, the music is produced by Kaithapram Damodaran, and the lyrics are written by Rex Vijayan.
This song is originally in the key of D Minor. You can change it to any key you want, using the Transpose option. The average tempo is 95 BPM. These chords are simple and easy to play on the guitar, ukulele or piano.
Vocals: Neha ,
Producer: Rex Vijayan,
Writer: Kaithapram Damodaran,

Click here for the chords and lyrics version

 
Original Key: D Minor
Time Signature: 7/8
Tempo: 95
Suggested Strumming: D,D,D,D,D,D,D
c h o r d  z o n e . o r g
 
 Legend
L - tied note
x - dead note
h - hammer on/pull off
b - bend
s - slide
~ - vibrato
g - ghost note
> - accentuated note
t - trill
M - palm mute
. - staccato
P - popping (bass)
S - slapping (bass)
+ - tapping
W - wide vibrato
< - fade in
w - whammy bar
= - tremolo picking
v - brush up
^ - brush down
V - pick stroke up
n - pick stroke down


E |-------------------------|-------------------------|
B |-------------------------|-------------------------|
G |-------------------------|-------------------------|
D |-------------------------|-------------------------|
A |-------------------------|-------------------------|
E |-------------------------|-------------------------|


www.chordzone.org
 
-----0-----0-----1--0----|--------------------------0-------------------|
--3-----3----------------|--3-----------3-----3--------3--1-------------|
-------------------------|--------------------------------------2-------|
-------------------------|----------------------------------------------|
-------------------------|----------------------------------------------|
-------------------------|----------------------------------------------|


-----0-----0-----1-------|--0L----------0----------|-----0-----0-----1--0----|
--------3-----------3----|-------------------------|--3-----3----------------|
--2----------------------|-------------------------|-------------------------|
-------------------------|-------------------------|-------------------------|
-------------------------|-------------------------|-------------------------|
-------------------------|-------------------------|-------------------------|


--------------------------0-------------------|-----0-----0-----1-------|
--3-----------3-----3--------3--1-------------|--------3-----------3----|
--------------------------------------2-------|--2----------------------|
----------------------------------------------|-------------------------|
----------------------------------------------|-------------------------|
----------------------------------------------|-------------------------|


--0L----------0----------|--0-----0--5L------------|--5L----------------5----|
-------------------------|-----3-------------------|-------------------------|
-------------------------|-------------------------|-------------------------|
-------------------------|-------------------------|-------------------------|
-------------------------|-------------------------|-------------------------|
-------------------------|-------------------------|-------------------------|


--0-----0--5-----5--5----|--3-----8-----------5-----8--5--3-----1-------|
-----3-------------------|----------------------------------------------|
-------------------------|----------------------------------------------|
-------------------------|----------------------------------------------|
-------------------------|----------------------------------------------|
-------------------------|----------------------------------------------|


--0-----------0-----------------1--0----------|-----0-----0-----1--0----|
--------3-----------------------------3-------|--3-----3----------------|
----------------------------------------------|-------------------------|
----------------------------------------------|-------------------------|
----------------------------------------------|-------------------------|
----------------------------------------------|-------------------------|


--------------------------0-------------------|-----0-----0-----1-------|
--3-----------3-----3--------3--1-------------|--------3-----------3----|
--------------------------------------2-------|--2----------------------|
----------------------------------------------|-------------------------|
----------------------------------------------|-------------------------|
----------------------------------------------|-------------------------|


--0----------------------|-----0-----0-----1--0----|
-------------------------|--3-----3----------------|
-------------------------|-------------------------|
-------------------------|-------------------------|
-------------------------|-------------------------|
-------------------------|-------------------------|


--------------------------0-------------------|-----0-----0-----1-------|
--3-----------3-----3--------3--1-------------|--------3-----------3----|
--------------------------------------2-------|--2----------------------|
----------------------------------------------|-------------------------|
----------------------------------------------|-------------------------|
----------------------------------------------|-------------------------|


--0----------------------|-------------------------|--5-----3--5--0--3-------|
-------------------------|-------------------------|-------------------------|
-------------------------|-------------------------|-------------------------|
-------------------------|-------------------------|-------------------------|
-------------------------|-------------------------|-------------------------|
-------------------------|-------------------------|-------------------------|


--5--------5-----5--3----|--5-----3--5--5--8-------|--3L----------3----------|
-------------------------|-------------------------|-------------------------|
-------------------------|-------------------------|-------------------------|
-------------------------|-------------------------|-------------------------|
-------------------------|-------------------------|-------------------------|
-------------------------|-------------------------|-------------------------|


--5-----3--5--0--3-------|--5--------5-----5--3----|--5-----3--5--5--8-------|
-------------------------|-------------------------|-------------------------|
-------------------------|-------------------------|-------------------------|
-------------------------|-------------------------|-------------------------|
-------------------------|-------------------------|-------------------------|
-------------------------|-------------------------|-------------------------|

www.chordzone.org
 

--3L----------3----------|--5-----12-12----10-10---|--10-12-10-8-----5-------|
-------------------------|-------------------------|-------------------------|
-------------------------|-------------------------|-------------------------|
-------------------------|-------------------------|-------------------------|
-------------------------|-------------------------|-------------------------|
-------------------------|-------------------------|-------------------------|


--5--------10L-----------|--10---------------------|--5-----12-12----10------|
-------------------------|-------------------------|-------------------------|
-------------------------|-------------------------|-------------------------|
-------------------------|-------------------------|-------------------------|
-------------------------|-------------------------|-------------------------|
-------------------------|-------------------------|-------------------------|


--8-----10-12-10----8-----------5-------------|--5--------10L-----------|
----------------------------------------------|-------------------------|
----------------------------------------------|-------------------------|
----------------------------------------------|-------------------------|
----------------------------------------------|-------------------------|
----------------------------------------------|-------------------------|


--10-------------10-10---|--10-------8-----5-------|
-------------------------|-------------------------|
-------------------------|-------------------------|
-------------------------|-------------------------|
-------------------------|-------------------------|
-------------------------|-------------------------|


--3-----5--8--5-----3-----1-----0-------------|
--------------------------------------3-------|
----------------------------------------------|
----------------------------------------------|
----------------------------------------------|
----------------------------------------------|


--0-----------0-----------------1--0----------|-----0-----0-----1--0----|
--------3-----------------------------3-------|--3-----3----------------|
----------------------------------------------|-------------------------|
----------------------------------------------|-------------------------|
----------------------------------------------|-------------------------|
----------------------------------------------|-------------------------|


--------------------------0-------------------|-----0-----0-----1-------|
--3-----------3-----3--------3--1-------------|--------3-----------3----|
--------------------------------------2-------|--2----------------------|
----------------------------------------------|-------------------------|
----------------------------------------------|-------------------------|
----------------------------------------------|-------------------------|


--0----------------------|-----0-----0-----1--0----|
-------------------------|--3-----3----------------|
-------------------------|-------------------------|
-------------------------|-------------------------|
-------------------------|-------------------------|
-------------------------|-------------------------|


--------------------------0-------------------|-----0-----0-----1-------|
--3-----------3-----3--------3--1-------------|--------3-----------3----|
--------------------------------------2-------|--2----------------------|
----------------------------------------------|-------------------------|
----------------------------------------------|-------------------------|
----------------------------------------------|-------------------------|


--0----------------------|--0-----0--5L------------|--5----------------------|
-------------------------|-----3-------------------|-------------------------|
-------------------------|-------------------------|-------------------------|
-------------------------|-------------------------|-------------------------|
-------------------------|-------------------------|-------------------------|
-------------------------|-------------------------|-------------------------|


--0-----0--5-----5--5----|--3-----8-----------5-----8--5--3-----1-------|
-----3-------------------|----------------------------------------------|
-------------------------|----------------------------------------------|
-------------------------|----------------------------------------------|
-------------------------|----------------------------------------------|
-------------------------|----------------------------------------------|


--0-----------0-----------------1--0----------|-----0-----0-----1--0----|
--------3-----------------------------3-------|--3-----3----------------|
----------------------------------------------|-------------------------|
----------------------------------------------|-------------------------|
----------------------------------------------|-------------------------|
----------------------------------------------|-------------------------|


--------------------------0-------------------|-----0-----0-----1-------|
--3-----------3-----3--------3--1-------------|--------3-----------3----|
--------------------------------------2-------|--2----------------------|
----------------------------------------------|-------------------------|
----------------------------------------------|-------------------------|
----------------------------------------------|-------------------------|


--0L----------0----------|-----0-----0-----1--0----|
-------------------------|--3-----3----------------|
-------------------------|-------------------------|
-------------------------|-------------------------|
-------------------------|-------------------------|
-------------------------|-------------------------|


--------------------------0-------------------|
--3-----------3-----3--------3--1-------------|
--------------------------------------2-------|
----------------------------------------------|
----------------------------------------------|
----------------------------------------------|


--------0-----------0-----------1-------------|--0L----------------0L---|
--------------3-----------------------3-------|-------------------------|
--2-------------------------------------------|-------------------------|
----------------------------------------------|-------------------------|
----------------------------------------------|-------------------------|
----------------------------------------------|-------------------------|


--0----------------------||
-------------------------||
-------------------------||
-------------------------||
-------------------------||
-------------------------||


Recommended for you:


Click to rate this post!
[Total: 0 Average: 0]

To The Top Get The Guitar Tabs

See Also