Now Reading
CITIZEN WAY – When I’m With You Guitar Tabs

CITIZEN WAY – When I’m With You Guitar Tabs

Enable Light Mode
#
A+
A-

This song is from the album 2, released on 05 February 2016. The vocals are by Ben Calhoun, the music is produced by Seth Mosley, Josh Calhoun , Ben Calhoun, and the lyrics are written by Seth Mosley.
This song is originally in the key of D Major. You can change it to any key you want, using the Transpose option. The average tempo is 85 BPM. These chords are simple and easy to play on the guitar, ukulele or piano.

Click here for the chords and lyrics versionRequested By rhianna

 
Original Key: D Major
Time Signature: 4/4
Tempo: 85
Suggested Strumming: DU,DU,DU,DU
c h o r d  z o n e . o r g

 
Legend
L - tied note
x - dead note
h - hammer on/pull off
b - bend
s - slide
~ - vibrato
g - ghost note
> - accentuated note
t - trill
M - palm mute
. - staccato
P - popping (bass)
S - slapping (bass)
+ - tapping
W - wide vibrato
< - fade in
w - whammy bar
= - tremolo picking
v - brush up
^ - brush down
V - pick stroke up
n - pick stroke down


E |-------|--5-----5--5--2-----0-----5-----5--2----------------|
B |-------|-----------------------3--------------------3--3----|
G |-------|----------------------------------------------------|
D |-------|----------------------------------------------------|
A |-------|----------------------------------------------------|
E |-------|----------------------------------------------------|


--5-----5-----2-----2--2--5--7-----0--------2--0----|
----------------------------------------------------|
----------------------------------------------------|
----------------------------------------------------|
----------------------------------------------------|
----------------------------------------------------|


--2-----2--0--2-----2--0--2-----2-----2-------------|
--------------------------------------------3--3----|
----------------------------------------------------|
----------------------------------------------------|
----------------------------------------------------|
----------------------------------------------------|


www.chordzone.org
 
--------0-------------------------------------------|
--3-----------------------------------------10-10---|
----------------------------------------------------|
----------------------------------------------------|
----------------------------------------------------|
----------------------------------------------------|


--------10----10------------------------------------|
--10----------------------------------------10-10---|
----------------------------------------------------|
----------------------------------------------------|
----------------------------------------------------|
----------------------------------------------------|


--------12----12------------------------------------|
--10----------------------------------------10-10---|
----------------------------------------------------|
----------------------------------------------------|
----------------------------------------------------|
----------------------------------------------------|


--------14----14----------------------------10-10---|
--10------------------------------------------------|
----------------------------------------------------|
----------------------------------------------------|
----------------------------------------------------|
----------------------------------------------------|


--10-15-15-------------2----|--0-------------|
----------------------------|-----3--3L------|
----------------------------|----------------|
----------------------------|----------------|
----------------------------|----------------|
----------------------------|----------------|


--------0-----0--------0--------2-----0-------------|----------------|
--3-----------------3-----------------------3-------|--3--3--3-------|
----------------------------------------------------|----------------|
----------------------------------------------------|----------------|
----------------------------------------------------|----------------|
----------------------------------------------------|----------------|


--------0-----0--------0--------2-----0-------------|
--------------------3-----------------------3-------|
----------------------------------------------------|
----------------------------------------------------|
----------------------------------------------------|
----------------------------------------------------|


--------5--5--5-----2--2--2-----0-----0-----2-------|
-----------------------------------3----------------|
----------------------------------------------------|
----------------------------------------------------|
----------------------------------------------------|
----------------------------------------------------|


--------5-----5--2--2-----0-----------0-----2-------|
--------------------------------3--------------0L---|
----------------------------------------------------|
----------------------------------------------------|
----------------------------------------------------|
----------------------------------------------------|


--------5-----5-----2--2--------0-----0-------------|
--0-----------------------------------------3--3L---|
----------------------------------------------------|
----------------------------------------------------|
----------------------------------------------------|
----------------------------------------------------|


-----0L-0--2--0-------------|----------------------------|
--3-----------------3-------|--3-----------------3-------|
----------------------------|-----------------------2L---|
----------------------------|----------------------------|
----------------------------|----------------------------|
----------------------------|----------------------------|


-----------2--0-------------|----------------------------|----------|
--------------------3-------|--3--------------------3L---|--3-------|
--2-------------------------|----------------------------|----------|
----------------------------|----------------------------|----------|
----------------------------|----------------------------|----------|
----------------------------|----------------------------|----------|


--5-----5--5--2-----0-----5-----5--2----------------|
-----------------------3--------------------3--3----|
----------------------------------------------------|
----------------------------------------------------|
----------------------------------------------------|
----------------------------------------------------|


--5-----5-----2-----2--2--5--7-----0--------2--0----|
----------------------------------------------------|
----------------------------------------------------|
----------------------------------------------------|
----------------------------------------------------|
----------------------------------------------------|


--2-----2--0--2-----2--0--2-----2-----2-------------|
--------------------------------------------3--3----|
----------------------------------------------------|
----------------------------------------------------|
----------------------------------------------------|
----------------------------------------------------|


--------0-------------------------------------------|
--3-----------------------------------------10-10---|
----------------------------------------------------|
----------------------------------------------------|
----------------------------------------------------|
----------------------------------------------------|


--------10----10------------------------------------|
--10----------------------------------------10-10---|
----------------------------------------------------|
----------------------------------------------------|
----------------------------------------------------|
----------------------------------------------------|


--------12----12------------------------------------|
--10----------------------------------------10-10---|
----------------------------------------------------|
----------------------------------------------------|
----------------------------------------------------|
----------------------------------------------------|


--------14----14----------------------------10-10---|
--10------------------------------------------------|
----------------------------------------------------|
----------------------------------------------------|
----------------------------------------------------|
----------------------------------------------------|


--10-15-15-------------2----|--0-------------|
----------------------------|-----3--3L------|
----------------------------|----------------|
----------------------------|----------------|
----------------------------|----------------|
----------------------------|----------------|


--------0-----0--------0--------2-----0-------------|----------------|
--3-----------------3-----------------------3-------|--3--3--3-------|
----------------------------------------------------|----------------|
----------------------------------------------------|----------------|
----------------------------------------------------|----------------|
----------------------------------------------------|----------------|


--------0-----0--------0--------2-----0-------------|
--------------------3-----------------------3-------|
----------------------------------------------------|
----------------------------------------------------|
----------------------------------------------------|
----------------------------------------------------|


--------5--5--5-----2--2--2-----0-----0-----2-------|
-----------------------------------3----------------|
----------------------------------------------------|
----------------------------------------------------|
----------------------------------------------------|
----------------------------------------------------|


--------5-----5--2--2-----0-----------0-----2-------|
--------------------------------3--------------0L---|
----------------------------------------------------|
----------------------------------------------------|
----------------------------------------------------|
----------------------------------------------------|


--------5-----5-----2--2--------0-----0-------------|
--0-----------------------------------------3--3L---|
----------------------------------------------------|
----------------------------------------------------|
----------------------------------------------------|
----------------------------------------------------|


-----0L-0--2--0-------------|----------------------------|
--3-----------------3-------|--3-----------------3-------|
----------------------------|-----------------------2L---|
----------------------------|----------------------------|
----------------------------|----------------------------|
----------------------------|----------------------------|

www.chordzone.org
 

--------------------2-----0-------------------------|
--------------------------------------3-------------|
--2-------------------------------------------------|
----------------------------------------------------|
----------------------------------------------------|
----------------------------------------------------|


----------------------------|-------|
--3--------------------3L---|--3L---|
----------------------------|-------|
----------------------------|-------|
----------------------------|-------|
----------------------------|-------|


----------------------------------------------------||
--3-------------------------------------------------||
----------------------------------------------------||
----------------------------------------------------||
----------------------------------------------------||
----------------------------------------------------||


Recommended for you:


Click to rate this post!
[Total: 0 Average: 0]

To The Top Get The Guitar Tabs

See Also