Now Reading
MEET BROS. feat ADITI SINGH SHARMA – Befikra Guitar Tabs

MEET BROS. feat ADITI SINGH SHARMA – Befikra Guitar Tabs

Enable Light Mode
#
A+
A-

This single was released on 28 June 2016. The vocals are by Meet Bros. , Aditi Singh Sharma,Meet Bros. , Aditi Singh Sharma, the music is produced by Kumaar,Kumaar, and the lyrics are written by Meet Bros,Meet Bros.
This song is originally in the key of Bb Major. You can change it to any key you want, using the Transpose option. The average tempo is 138 BPM. These chords are simple and easy to play on the guitar, ukulele or piano.
Vocals: Meet Bros. , Aditi Singh Sharma,
Producer: Meet Bros,
Writer: Kumaar,

Click here for the chords and lyrics version

 
Original Key: Bb Major
Time Signature: 4/4
Tempo: 138
Suggested Strumming: DU,DU,DU,DU
c h o r d  z o n e . o r g
Legend
L - tied note
x - dead note
h - hammer on/pull off
b - bend
s - slide
~ - vibrato
g - ghost note
> - accentuated note
t - trill
M - palm mute
. - staccato
P - popping (bass)
S - slapping (bass)
+ - tapping
W - wide vibrato
< - fade in
w - whammy bar
= - tremolo picking
v - brush up
^ - brush down
V - pick stroke up
n - pick stroke down


E |-------|-----------1L-1-------------------------------------|
B |-------|--------------------------------------1-----3-------|
G |-------|--3-----------------3L----3-------------------------|
D |-------|----------------------------------------------------|
A |-------|----------------------------------------------------|
E |-------|----------------------------------------------------|


-----------1----------------------------------------|
--------------------------------------1-----3-------|
--0-----3-----------3L----3-------------------------|
----------------------------------------------------|
----------------------------------------------------|
----------------------------------------------------|


-----------1----------------------------------------|
--------------------------------------1-----3-------|
--------3-----------3L----3-------------------------|
--1-------------------------------------------------|
----------------------------------------------------|
----------------------------------------------------|


----------------------------------------------------|
--------------------1--------------1----------------|
-----------2--------------2L----2-----------3L-3----|
--3-------------------------------------------------|
----------------------------------------------------|
----------------------------------------------------|


--6--------6--6--------6----|--6--6--6--6--8--6--5--6----|
----------------------------|----------------------------|
----------------------------|----------------------------|
----------------------------|----------------------------|
----------------------------|----------------------------|
----------------------------|----------------------------|


--6--------6--6--------6----|--6--6--6--6--8--6--5--6----|
----------------------------|----------------------------|
----------------------------|----------------------------|
----------------------------|----------------------------|
----------------------------|----------------------------|
----------------------------|----------------------------|


--6--------6--6--------6----|--6--6--6--6--8--6--5--6----|
----------------------------|----------------------------|
----------------------------|----------------------------|
----------------------------|----------------------------|
----------------------------|----------------------------|
----------------------------|----------------------------|


--6--------6--6--------6----|--6--6--6--6--8--6--5--6----|
----------------------------|----------------------------|
----------------------------|----------------------------|
----------------------------|----------------------------|
----------------------------|----------------------------|
----------------------------|----------------------------|


--6--------------1L-1-------|
--------3-----3--------4L---|
----------------------------|
----------------------------|
----------------------------|
----------------------------|


----------------------------------------------------|
--4-----3L----3-----1-----------3--1--------1-------|
--------------------------------------3-------------|
----------------------------------------------------|
----------------------------------------------------|
----------------------------------------------------|


-----------------1L-1-------|
--3-----3-----3--------4L---|
----------------------------|
----------------------------|
----------------------------|
----------------------------|


----------------------------------------------------|-------|-------|
--4-----3L----3-----1-----------3--1--------1-------|-------|-------|
--------------------------------------3-------------|-------|-------|
----------------------------------------------------|-------|-------|
----------------------------------------------------|-------|-------|
----------------------------------------------------|-------|-------|


--5--6--6--5--6--------5----|
----------------------------|
----------------------------|
----------------------------|
----------------------------|
----------------------------|


--5-----6-----6-----3-----1--------3----------------|
--------------------------------------------3-------|
----------------------------------------------------|
----------------------------------------------------|
----------------------------------------------------|
----------------------------------------------------|


-----------------1L-1-------|
--3--1--3-----3--------4L---|
----------------------------|
----------------------------|
----------------------------|
----------------------------|


----------------------------------------------------|
--4-----3L----3-----1-----------3--1--------1-------|
--------------------------------------3-------------|
----------------------------------------------------|
----------------------------------------------------|
----------------------------------------------------|

www.chordzone.org
 

--5--6--6--5--6--------5----|
----------------------------|
----------------------------|
----------------------------|
----------------------------|
----------------------------|


--5-----6-----6-----6-----6--------10-------8-------|
----------------------------------------------------|
----------------------------------------------------|
----------------------------------------------------|
----------------------------------------------------|
----------------------------------------------------|


--8--------------1L-1-------|
--------3-----3--------4L---|
----------------------------|
----------------------------|
----------------------------|
----------------------------|


----------------------------------------------------|
--4-----3L----3-----1-----------3--1--------1-------|
--------------------------------------3-------------|
----------------------------------------------------|
----------------------------------------------------|
----------------------------------------------------|


--5--6--6--5--6--------5----|
----------------------------|
----------------------------|
----------------------------|
----------------------------|
----------------------------|


--5-----6-----6-----3-----1--------3----------------|
--------------------------------------------3-------|
----------------------------------------------------|
----------------------------------------------------|
----------------------------------------------------|
----------------------------------------------------|


-----------------1L-1-------|
--3--1--3-----3--------4L---|
----------------------------|
----------------------------|
----------------------------|
----------------------------|


----------------------------------------------------|
--4-----3L----3-----1-----------3--1--------1-------|
--------------------------------------3-------------|
----------------------------------------------------|
----------------------------------------------------|
----------------------------------------------------|


--5--6--6--5--6--------5----|
----------------------------|
----------------------------|
----------------------------|
----------------------------|
----------------------------|


--5-----6-----6-----6-----6--------10-------8-------|
----------------------------------------------------|
----------------------------------------------------|
----------------------------------------------------|
----------------------------------------------------|
----------------------------------------------------|


--8--------------1L-1-------|
--------3-----3--------4L---|
----------------------------|
----------------------------|
----------------------------|
----------------------------|


--------------------------------------6-----15------|
--4-----3L----3-----1-----------3--1----------------|
----------------------------------------------------|
----------------------------------------------------|
----------------------------------------------------|
----------------------------------------------------|


--15----13----13----10----10----------------15------|
--------------------------------11----11------------|
----------------------------------------------------|
----------------------------------------------------|
----------------------------------------------------|
----------------------------------------------------|


--15----13----13----10----10----------------15------|
--------------------------------11----11------------|
----------------------------------------------------|
----------------------------------------------------|
----------------------------------------------------|
----------------------------------------------------|


--15----13----13----10----10-------11-------10------|
----------------------------------------------------|
----------------------------------------------------|
----------------------------------------------------|
----------------------------------------------------|
----------------------------------------------------|


-----------------------15---|
--13----------------11------|
----------------------------|
----------------------------|
----------------------------|
----------------------------|


--15----13----13----10----10----------------15------|
--------------------------------11----11------------|
----------------------------------------------------|
----------------------------------------------------|
----------------------------------------------------|
----------------------------------------------------|


--15----13----13----10----10----------------15------|
--------------------------------11----11------------|
----------------------------------------------------|
----------------------------------------------------|
----------------------------------------------------|
----------------------------------------------------|


--15----13----13----10----10-------11-------10------|----------|
----------------------------------------------------|--13------|
----------------------------------------------------|----------|
----------------------------------------------------|----------|
----------------------------------------------------|----------|
----------------------------------------------------|----------|


-----------10----10----13L--|--13-11----10----11-10------|
--11----11----13------------|--------------13-------13---|
----------------------------|----------------------------|
----------------------------|----------------------------|
----------------------------|----------------------------|
----------------------------|----------------------------|


-----------10----10----13L--|--13-11L11-10-8--11-10------|
--11----11----13------------|-----------------------13---|
----------------------------|----------------------------|
----------------------------|----------------------------|
----------------------------|----------------------------|
----------------------------|----------------------------|


--15----15-15-15-15-15-15---|--15-13-13-13-13-13-13-13---|
----------------------------|----------------------------|
----------------------------|----------------------------|
----------------------------|----------------------------|
----------------------------|----------------------------|
----------------------------|----------------------------|


--13----10----10----10----10-------11-------10------|----------|
----------------------------------------------------|--13------|
----------------------------------------------------|----------|
----------------------------------------------------|----------|
----------------------------------------------------|----------|
----------------------------------------------------|----------|


-----------10----10----13L--|--13-11----10----11-10------|
--11----11----13------------|--------------13-------13---|
----------------------------|----------------------------|
----------------------------|----------------------------|
----------------------------|----------------------------|
----------------------------|----------------------------|


-----------10----10----13L--|--13-11L11-10----11-10------|
--11----11----13------------|--------------13-------13---|
----------------------------|----------------------------|
----------------------------|----------------------------|
----------------------------|----------------------------|
----------------------------|----------------------------|


--15----15-15-15-15-15-15---|--15-13-13-13-13-13-13-13---|
----------------------------|----------------------------|
----------------------------|----------------------------|
----------------------------|----------------------------|
----------------------------|----------------------------|
----------------------------|----------------------------|


--13----10----10----10----10-------11-------10------|
----------------------------------------------------|
----------------------------------------------------|
----------------------------------------------------|
----------------------------------------------------|
----------------------------------------------------|


----------------------------|----------------------------|
--13-------------------11---|--11-------11-11-------11---|
----------------------------|----------------------------|
----------------------------|----------------------------|
----------------------------|----------------------------|
----------------------------|----------------------------|


----------------------------|----------------------------|
--11-11-11-11-13-11-10-11---|--11-------11-11-------11---|
----------------------------|----------------------------|
----------------------------|----------------------------|
----------------------------|----------------------------|
----------------------------|----------------------------|


----------------------------|----------------------------|
--11-11-11-11-13-11-10-11---|--11-------11-11-------11---|
----------------------------|----------------------------|
----------------------------|----------------------------|
----------------------------|----------------------------|
----------------------------|----------------------------|


----------------------------|
--11-11-11-11-13-11-10------|
----------------------------|
----------------------------|
----------------------------|
----------------------------|


----------------------------------------------------|
--8--------8--------8-----10-------10-------10------|
----------------------------------------------------|
----------------------------------------------------|
----------------------------------------------------|
----------------------------------------------------|

www.chordzone.org
 

----------------------------------------------------|
--11-------11-------11----13----11----10----11------|
----------------------------------------------------|
----------------------------------------------------|
----------------------------------------------------|
----------------------------------------------------|


----------------------------------------------------||
--11L---------------------11------------------------||
----------------------------------------------------||
----------------------------------------------------||
----------------------------------------------------||
----------------------------------------------------||


Recommended for you:


Click to rate this post!
[Total: 0 Average: 0]

To The Top Get The Guitar Tabs

See Also