Now Reading
SANAM – Pal Pal Dil Ke Paas Guitar Tabs

SANAM – Pal Pal Dil Ke Paas Guitar Tabs

Enable Light Mode
#
A+
A-

This single was released on 31 March 2015. The vocals are by Sanam, the music is produced by Sanam, and the lyrics are written by Sanam .
This song is originally in the key of A Major. You can change it to any key you want, using the Transpose option. The average tempo is 125 BPM. These chords are simple and easy to play on the guitar, ukulele or piano.
Vocals: Sanam ,
Producer: Sanam ,
Writer: Sanam ,

Click here for the chords and lyrics version

 
Original Key: A Major
Time Signature: 4/4
Tempo: 125
Suggested Strumming: DU,DU,DU,DU
c h o r d  z o n e . o r g


Legend
L - tied note
x - dead note
h - hammer on/pull off
b - bend
s - slide
~ - vibrato
g - ghost note
> - accentuated note
t - trill
M - palm mute
. - staccato
P - popping (bass)
S - slapping (bass)
+ - tapping
W - wide vibrato
< - fade in
w - whammy bar
= - tremolo picking
v - brush up
^ - brush down
V - pick stroke up
n - pick stroke down


E |-------|-------|-------|-------|-----------------0--2--5----|
B |-------|-------|-------|-------|----------------------------|
G |-------|-------|-------|-------|----------------------------|
D |-------|-------|-------|-------|----------------------------|
A |-------|-------|-------|-------|----------------------------|
E |-------|-------|-------|-------|----------------------------|


-----------10----9----------|-----0L-0--------0--2--5----|
--7--------------------7L---|--7-------------------------|
----------------------------|----------------------------|
----------------------------|----------------------------|
----------------------------|----------------------------|
----------------------------|----------------------------|


--2--------10L10-9----------|-----0L-0--------0--2--5----|
-----------------------7----|----------------------------|
----------------------------|----------------------------|
----------------------------|----------------------------|
----------------------------|----------------------------|
----------------------------|----------------------------|


--2--------10L10-9----------|-----0L-0--------0--2--5----|
-----------------------7----|----------------------------|
----------------------------|----------------------------|
----------------------------|----------------------------|
----------------------------|----------------------------|
----------------------------|----------------------------|


-----------10L10-9----------|-----0L-0L-------0----------|-------|-------|
--7--------------------7----|----------------------------|-------|-------|
----------------------------|----------------------------|-------|-------|
----------------------------|----------------------------|-------|-------|
----------------------------|----------------------------|-------|-------|
----------------------------|----------------------------|-------|-------|


-------|-------|--2--4----|--5--------------9L-9--7----|--7L---|
-------|-------|----------|----------------------------|-------|
-------|-------|----------|----------------------------|-------|
-------|-------|----------|----------------------------|-------|
-------|-------|----------|----------------------------|-------|
-------|-------|----------|----------------------------|-------|


--7-----------------2--2----|--2--4--4--5L-5-----5L------|--5----|--2--4----|
----------------------------|----------------------------|-------|----------|
----------------------------|----------------------------|-------|----------|
----------------------------|----------------------------|-------|----------|
----------------------------|----------------------------|-------|----------|
----------------------------|----------------------------|-------|----------|


--5L----------5--9L-9--7----|--7L---|--7-----------------2--2----|
----------------------------|-------|----------------------------|
----------------------------|-------|----------------------------|
----------------------------|-------|----------------------------|
----------------------------|-------|----------------------------|
----------------------------|-------|----------------------------|


--2--4--4--5L-5-----5L------|--5-------|--9--10---|
----------------------------|----------|----------|
----------------------------|----------|----------|
----------------------------|----------|----------|
----------------------------|----------|----------|
----------------------------|----------|----------|


--12L---------------------12----14-------12---------|--12L--|
----------------------------------------------------|-------|
----------------------------------------------------|-------|
----------------------------------------------------|-------|
----------------------------------------------------|-------|
----------------------------------------------------|-------|


--12----------------7--7----|--7--9--9--10L10-9L-9L------|--9-------|--2--4----|
----------------------------|----------------------------|----------|----------|
----------------------------|----------------------------|----------|----------|
----------------------------|----------------------------|----------|----------|
----------------------------|----------------------------|----------|----------|
----------------------------|----------------------------|----------|----------|


--5L----------5--9L-9--7----|--7L---|--7-----------------2--2----|
----------------------------|-------|----------------------------|
----------------------------|-------|----------------------------|
----------------------------|-------|----------------------------|
----------------------------|-------|----------------------------|
----------------------------|-------|----------------------------|


--2--4--4--5L-5-----5L------|--5L----------5L-5--2--5----|
----------------------------|-----------------5----------|
----------------------------|----------------------------|
----------------------------|----------------------------|
----------------------------|----------------------------|
----------------------------|----------------------------|


-----------10----9-----2L---|--2--0L-0--------0--2--5----|
--7-------------------------|----------------------------|
----------------------------|----------------------------|
----------------------------|----------------------------|
----------------------------|----------------------------|
----------------------------|----------------------------|


--2--------10L10-9-----2----|-----0L-0L-------0--0--0----|
----------------------------|----------------------------|
----------------------------|----------------------------|
----------------------------|----------------------------|
----------------------------|----------------------------|
----------------------------|----------------------------|


--2--------2--2-----2-------|--2--------------------9----|
----------------------------|--------------------7-------|
----------------------------|----------------------------|
----------------------------|----------------------------|
----------------------------|----------------------------|
----------------------------|----------------------------|


--9--7--7--5--5--4--4--2----|--2--0--0-------------------|
----------------------------|----------------------------|
----------------------------|--------------------9--9----|
----------------------------|----------------------------|
----------------------------|----------------------------|
----------------------------|----------------------------|


--12-------12-12----12-14---|--14-12-10----------10-9----|
----------------------------|----------------------------|
----------------------------|----------------------------|
----------------------------|----------------------------|
----------------------------|----------------------------|
----------------------------|----------------------------|


--7--------7--7--10-10-9----|--9-----------------9--9----|
----------------------------|----------------------------|
----------------------------|----------------------------|
----------------------------|----------------------------|
----------------------------|----------------------------|
----------------------------|----------------------------|


--7--9--9--7--7--5--5-------|--5--------9----|--7--9--9--7--7--5--5-------|
----------------------------|----------------|----------------------------|
----------------------------|----------------|----------------------------|
----------------------------|----------------|----------------------------|
----------------------------|----------------|----------------------------|
----------------------------|----------------|----------------------------|


--5-----------------9--9----|--7--9--9--7--7--5--5-------|
----------------------------|----------------------------|
----------------------------|----------------------------|
----------------------------|----------------------------|
----------------------------|----------------------------|
----------------------------|----------------------------|


--5-----------------9--9----|--7--9--9--7--7--5--5-------|
----------------------------|----------------------------|
----------------------------|----------------------------|
----------------------------|----------------------------|
----------------------------|----------------------------|
----------------------------|----------------------------|


--5-------------------------|--12-------12-12----12-14---|
----------------------------|----------------------------|
--------------------9--9----|----------------------------|
----------------------------|----------------------------|
----------------------------|----------------------------|
----------------------------|----------------------------|


--14-12-10----------10-9----|--7--------7--7--10-10-9----|--9-------------|
----------------------------|----------------------------|----------------|
----------------------------|----------------------------|----------------|
----------------------------|----------------------------|----------------|
----------------------------|----------------------------|----------------|
----------------------------|----------------------------|----------------|


-----4----|--5--------------9L-9--7----|--7L---|--7-----------------2--2----|
--7-------|----------------------------|-------|----------------------------|
----------|----------------------------|-------|----------------------------|
----------|----------------------------|-------|----------------------------|
----------|----------------------------|-------|----------------------------|
----------|----------------------------|-------|----------------------------|


--2--4--4--5L-5--5L-5L------|--5-------------|-------|-------|
----------------------------|----------------|-------|-------|
----------------------------|----------------|-------|-------|
----------------------------|----------------|-------|-------|
----------------------------|----------------|-------|-------|
----------------------------|----------------|-------|-------|


-----------------0--2--5----|-----------10----9-----2L---|
----------------------------|--7-------------------------|
----------------------------|----------------------------|
----------------------------|----------------------------|
----------------------------|----------------------------|
----------------------------|----------------------------|


--2--0L-0--------0--2--5----|-----------10L10-9----------|
----------------------------|--7--------------------7----|
----------------------------|----------------------------|
----------------------------|----------------------------|
----------------------------|----------------------------|
----------------------------|----------------------------|


-----0L-0--------0--2--5----|-----------10L10-9----------|
----------------------------|--7--------------------7----|
----------------------------|----------------------------|
----------------------------|----------------------------|
----------------------------|----------------------------|
----------------------------|----------------------------|


-----0L-0--------0--2--5----|-----------10L10-9----------|
----------------------------|--7--------------------7----|
----------------------------|----------------------------|
----------------------------|----------------------------|
----------------------------|----------------------------|
----------------------------|----------------------------|


-----0L-0L-------0----------|-------|-------|-------|-------|--2--4----|
----------------------------|-------|-------|-------|-------|----------|
----------------------------|-------|-------|-------|-------|----------|
----------------------------|-------|-------|-------|-------|----------|
----------------------------|-------|-------|-------|-------|----------|
----------------------------|-------|-------|-------|-------|----------|


--5--------------9L-9--7----|--7L---|--7-----------------2--2----|
----------------------------|-------|----------------------------|
----------------------------|-------|----------------------------|
----------------------------|-------|----------------------------|
----------------------------|-------|----------------------------|
----------------------------|-------|----------------------------|


--2--4--4--5L-5-----5L------|--5----|--2--4----|--5L----------5--9L-9--7----|
----------------------------|-------|----------|----------------------------|
----------------------------|-------|----------|----------------------------|
----------------------------|-------|----------|----------------------------|
----------------------------|-------|----------|----------------------------|
----------------------------|-------|----------|----------------------------|


www.chordzone.org
 
--7L---|--7-----------------2--2----|--2--4--4--5L-5-----5L------|--5-------|
-------|----------------------------|----------------------------|----------|
-------|----------------------------|----------------------------|----------|
-------|----------------------------|----------------------------|----------|
-------|----------------------------|----------------------------|----------|
-------|----------------------------|----------------------------|----------|


--9--10---|--12L---------------------12----14-------12---------|--12L--|
----------|----------------------------------------------------|-------|
----------|----------------------------------------------------|-------|
----------|----------------------------------------------------|-------|
----------|----------------------------------------------------|-------|
----------|----------------------------------------------------|-------|


--12----------------7--7----|--7--9--9--10L10-9L-9L------|--9-------|--2--4----|
----------------------------|----------------------------|----------|----------|
----------------------------|----------------------------|----------|----------|
----------------------------|----------------------------|----------|----------|
----------------------------|----------------------------|----------|----------|
----------------------------|----------------------------|----------|----------|


--5L----------5--9L-9--7----|--7L---|--7-----------------2--2----|
----------------------------|-------|----------------------------|
----------------------------|-------|----------------------------|
----------------------------|-------|----------------------------|
----------------------------|-------|----------------------------|
----------------------------|-------|----------------------------|


--2--4--4--5L-5-----5L------|--5L----------5--0--2--5----|
----------------------------|----------------------------|
----------------------------|----------------------------|
----------------------------|----------------------------|
----------------------------|----------------------------|
----------------------------|----------------------------|


-----------10----9----------|-----0L-0--------0--2--5----|
--7--------------------7L---|--7-------------------------|
----------------------------|----------------------------|
----------------------------|----------------------------|
----------------------------|----------------------------|
----------------------------|----------------------------|


--2--------10L10-9-----2----|
----------------------------|
----------------------------|
----------------------------|
----------------------------|
----------------------------|


--------0L----0L----------0-----------0-----0-------|
----------------------------------------------------|
----------------------------------------------------|
----------------------------------------------------|
----------------------------------------------------|
----------------------------------------------------|


--2--------2--2-----2-------|--2--------------------9----|
----------------------------|--------------------7-------|
----------------------------|----------------------------|
----------------------------|----------------------------|
----------------------------|----------------------------|
----------------------------|----------------------------|


--9--7--7--5--5--4--4--2----|--2--0--0-----------0--0----|
----------------------------|----------------------------|
----------------------------|----------------------------|
----------------------------|----------------------------|
----------------------------|----------------------------|
----------------------------|----------------------------|


--12-------12-12----12-14---|--14-12-10----------10-9----|
----------------------------|----------------------------|
----------------------------|----------------------------|
----------------------------|----------------------------|
----------------------------|----------------------------|
----------------------------|----------------------------|


--7--------7--7--10-10-9----|--9-----------------9--9----|
----------------------------|----------------------------|
----------------------------|----------------------------|
----------------------------|----------------------------|
----------------------------|----------------------------|
----------------------------|----------------------------|


--7--9--9--7--7--5--5-------|--5--------9----|--7--9--9--7--7--5--5-------|
----------------------------|----------------|----------------------------|
----------------------------|----------------|----------------------------|
----------------------------|----------------|----------------------------|
----------------------------|----------------|----------------------------|
----------------------------|----------------|----------------------------|


--5-----------------9--9----|--7--9--9--7--7--5--5-------|
----------------------------|----------------------------|
----------------------------|----------------------------|
----------------------------|----------------------------|
----------------------------|----------------------------|
----------------------------|----------------------------|


--5-----------------9--9----|--7--9--9--7--7--5--5-------|
----------------------------|----------------------------|
----------------------------|----------------------------|
----------------------------|----------------------------|
----------------------------|----------------------------|
----------------------------|----------------------------|


--5-----------------0--0----|--12-------12-12----12-14---|
----------------------------|----------------------------|
----------------------------|----------------------------|
----------------------------|----------------------------|
----------------------------|----------------------------|
----------------------------|----------------------------|


--14-12-10----------10-9----|--7--------7--7--10-10-9----|--9-------------|
----------------------------|----------------------------|----------------|
----------------------------|----------------------------|----------------|
----------------------------|----------------------------|----------------|
----------------------------|----------------------------|----------------|
----------------------------|----------------------------|----------------|


--2--4----|--5--------------9L-9--7----|--7L---|--7-----------------2--2----|
----------|----------------------------|-------|----------------------------|
----------|----------------------------|-------|----------------------------|
----------|----------------------------|-------|----------------------------|
----------|----------------------------|-------|----------------------------|
----------|----------------------------|-------|----------------------------|

www.chordzone.org

www.chordzone.org
 

--2--4--4--5L-5--5L-5L------|
----------------------------|
----------------------------|
----------------------------|
----------------------------|
----------------------------|


--5-------------------------------------------------||
----------------------------------------------------||
----------------------------------------------------||
----------------------------------------------------||
----------------------------------------------------||
----------------------------------------------------||


Recommended for you:


Click to rate this post!
[Total: 0 Average: 0]

To The Top Get The Guitar Tabs

See Also