Now Reading
VETTAM – Oru Kathilola Njan Guitar Tabs

VETTAM – Oru Kathilola Njan Guitar Tabs

Enable Light Mode
#
A+
A-

This song is from the movie Vettam(2020), released on 20 August 2020 starring Dileep, Bhavna Pani. The vocals are by M G Sreekumar, Sujatha Mohan, the music is produced by B R Prasad, and the lyrics are written by Berny Ignatius
This song is originally in the key of D Major. You can change it to any key you want, using the Transpose option. The average tempo is 88 BPM. These chords are simple and easy to play on the guitar, ukulele or piano.

Click here for the chords and lyrics version

 
Original Key: D Major
Time Signature: 4/4
Tempo: 88
Suggested Strumming: DU,DU,DU,DU
c h o r d  z o n e . o r g

 
Legend
L - tied note
x - dead note
h - hammer on/pull off
b - bend
s - slide
~ - vibrato
g - ghost note
> - accentuated note
t - trill
M - palm mute
. - staccato
P - popping (bass)
S - slapping (bass)
+ - tapping
W - wide vibrato
< - fade in
w - whammy bar
= - tremolo picking
v - brush up
^ - brush down
V - pick stroke up
n - pick stroke down


E |-------|-----------------------------------------------0----|
B |-------|--------------------------------------------3-------|
G |-------|----------------------------------------------------|
D |-------|----------------------------------------------------|
A |-------|----------------------------------------------------|
E |-------|----------------------------------------------------|


--5-----5--2-----0--0-----------0--------------0----|
--------------------------2-----------3-----3-------|
----------------------------------------------------|
----------------------------------------------------|
----------------------------------------------------|
----------------------------------------------------|


--5-----5--2-----0--0-----------0--------------0----|
--------------------------2-----------3-----3-------|
----------------------------------------------------|
----------------------------------------------------|
----------------------------------------------------|
----------------------------------------------------|


--5-----5--2-----0--0-----------0-------------------|
--------------------------2-----------3-----2--3----|
----------------------------------------------------|
----------------------------------------------------|
----------------------------------------------------|
----------------------------------------------------|


--2-----------------0L----0--------------------0----|
--------------------------------------------3-------|
----------------------------------------------------|
----------------------------------------------------|
----------------------------------------------------|
----------------------------------------------------|


--5-----5--2-----0--0--------------------------0----|
--------------------------2-----5-----3-----3-------|
----------------------------------------------------|
----------------------------------------------------|
----------------------------------------------------|
----------------------------------------------------|


--5-----5--2-----0--0-----------0--------------0----|
--------------------------2-----------3-----3-------|
----------------------------------------------------|
----------------------------------------------------|
----------------------------------------------------|
----------------------------------------------------|


--5-----5--2-----0--0-----------0-------------------|
--------------------------2-----------3-----2--3----|
----------------------------------------------------|
----------------------------------------------------|
----------------------------------------------------|
----------------------------------------------------|


--2--------0L-0-------------|
----------------------------|
----------------------------|
----------------------------|
----------------------------|
----------------------------|


--------5--3--0-----------0-----5--4-----7--5-------|
-----------------3--2--3----------------------------|
----------------------------------------------------|
----------------------------------------------------|
----------------------------------------------------|
----------------------------------------------------|


--------5--3--0-----------0-----5--4-----7--5-------|
-----------------3--2--3----------------------------|
----------------------------------------------------|
----------------------------------------------------|
----------------------------------------------------|
----------------------------------------------------|


--------5--3--0-----------0-----5--4-----7--5-------|--9--7----------|
-----------------3--2--3----------------------------|----------------|
----------------------------------------------------|----------------|
----------------------------------------------------|----------------|
----------------------------------------------------|----------------|
----------------------------------------------------|----------------|


--9--------10-7--------5--4-----4-----5-------------|
--------------------------------------------2--3----|
----------------------------------------------------|
----------------------------------------------------|
----------------------------------------------------|
----------------------------------------------------|


--0--------5-----------0----------------------------|
--------------7-----------3-----2-----3-------------|
----------------------------------------------------|
----------------------------------------------------|
----------------------------------------------------|
----------------------------------------------------|


--9--------10-7--------5--4-----4-----5-------------|
--------------------------------------------2--3----|
----------------------------------------------------|
----------------------------------------------------|
----------------------------------------------------|
----------------------------------------------------|


--0--------5-----------0----------------------------|
--------------7-----------3-----2-----3-----2--3----|
----------------------------------------------------|
----------------------------------------------------|
----------------------------------------------------|
----------------------------------------------------|

www.chordzone.org
 

--0--------0--------------0-------------------------|
--------3--------3--3-----------3--3--------2--3----|
----------------------------------------------------|
----------------------------------------------------|
----------------------------------------------------|
----------------------------------------------------|


--2-----0--2-----0--0-----2-----0--0--------0--0----|
----------------------------------------------------|
----------------------------------------------------|
----------------------------------------------------|
----------------------------------------------------|
----------------------------------------------------|


--2-----2--2-----2--2-----3-----3--3-----3--5-------|
----------------------------------------------------|
----------------------------------------------------|
----------------------------------------------------|
----------------------------------------------------|
----------------------------------------------------|


--0-----0-----------0--------------------------0----|
-----------------2--------3-----------------3-------|
----------------------------------------------------|
----------------------------------------------------|
----------------------------------------------------|
----------------------------------------------------|


--5-----5--2-----0--0-----------0--------------0----|
--------------------------2-----------3-----3-------|
----------------------------------------------------|
----------------------------------------------------|
----------------------------------------------------|
----------------------------------------------------|


--5-----5--2-----0--0-----------0--------------0----|
--------------------------2-----------3-----3-------|
----------------------------------------------------|
----------------------------------------------------|
----------------------------------------------------|
----------------------------------------------------|


--5-----5--2-----0--0-----------0-------------------|
--------------------------2-----------3-----2--3----|
----------------------------------------------------|
----------------------------------------------------|
----------------------------------------------------|
----------------------------------------------------|


--2--------0L-0-------------|
----------------------------|
----------------------------|
----------------------------|
----------------------------|
----------------------------|


-----------9-----9--9--10-7--------5--5-----5L------|
----------------------------------------------------|
----------------------------------------------------|
----------------------------------------------------|
----------------------------------------------------|
----------------------------------------------------|


--5-----0-----0--4-----4--5-------------------------|
----------------------------------------------------|
----------------------------------------------------|
----------------------------------------------------|
----------------------------------------------------|
----------------------------------------------------|


-----------9-----9--9--10-7--------5--5-----5L------|
----------------------------------------------------|
----------------------------------------------------|
----------------------------------------------------|
----------------------------------------------------|
----------------------------------------------------|


--5-----0-----2--------0--------------------2--0----|
-----------------2--------3-------------------------|
----------------------------------------------------|
----------------------------------------------------|
----------------------------------------------------|
----------------------------------------------------|


--------------------------2-----0L----0-----0--0----|
-----------------2--3-------------------------------|
--2--------2----------------------------------------|
----------------------------------------------------|
----------------------------------------------------|
----------------------------------------------------|


--2--------2-----5--0-----------------------2--0----|
--------------------------3-------------------------|
----------------------------------------------------|
----------------------------------------------------|
----------------------------------------------------|
----------------------------------------------------|


--------------------------2-----0L----0-----0--0----|
-----------------2--3-------------------------------|
--2--------2----------------------------------------|
----------------------------------------------------|
----------------------------------------------------|
----------------------------------------------------|


--2--------2-----5--0-----------------------10------|
--------------------------3-------------------------|
----------------------------------------------------|
----------------------------------------------------|
----------------------------------------------------|
----------------------------------------------------|


--9--10-7--5--4--5-----5--4--5--3--0----------------|
--------------------------------------2--3-----3----|
----------------------------------------------------|
----------------------------------------------------|
----------------------------------------------------|
----------------------------------------------------|


-----------------------------------0--------10------|
--2--3--2-----------------------2-----3-------------|
-----------4--2--2-----2-----2----------------------|
--------------------------4-------------------------|
----------------------------------------------------|
----------------------------------------------------|


--9--10-7--5--4--5-----5--4--5--3--0----------------|
--------------------------------------2--3-----3----|
----------------------------------------------------|
----------------------------------------------------|
----------------------------------------------------|
----------------------------------------------------|


-----------------------------------0----------------|
--2--3--2-----------------------2-----3-----2--3----|
-----------4--2--2-----2-----2----------------------|
--------------------------4-------------------------|
----------------------------------------------------|
----------------------------------------------------|


--0--------0--------------0-------------------------|
--------3--------3--3-----------3--3--------2--3----|
----------------------------------------------------|
----------------------------------------------------|
----------------------------------------------------|
----------------------------------------------------|


--2-----0--2-----0--0-----2-----0--0--------0--0----|
----------------------------------------------------|
----------------------------------------------------|
----------------------------------------------------|
----------------------------------------------------|
----------------------------------------------------|


--2-----2--2-----2--2-----3-----3--3-----3--5-------|
----------------------------------------------------|
----------------------------------------------------|
----------------------------------------------------|
----------------------------------------------------|
----------------------------------------------------|


--0-----0-----------0--------------------------0----|
-----------------2--------3-----------------3-------|
----------------------------------------------------|
----------------------------------------------------|
----------------------------------------------------|
----------------------------------------------------|


--5-----5--2-----0--0-----------0--------------0----|
--------------------------2-----------3-----3-------|
----------------------------------------------------|
----------------------------------------------------|
----------------------------------------------------|
----------------------------------------------------|


--5-----5--2-----0--0-----------0--------------0----|
--------------------------2-----------3-----3-------|
----------------------------------------------------|
----------------------------------------------------|
----------------------------------------------------|
----------------------------------------------------|


--5-----5--2-----0--0-----------0-------------------|
--------------------------2-----------3-----2--3----|
----------------------------------------------------|
----------------------------------------------------|
----------------------------------------------------|
----------------------------------------------------|


--5--------12L12L-----------|
----------------------------|
----------------------------|
----------------------------|
----------------------------|
----------------------------|


--12-------------------0--5-----5--2-----0--0-------|
--------------------3-------------------------------|
----------------------------------------------------|
----------------------------------------------------|
----------------------------------------------------|
----------------------------------------------------|


--------0--------------0--5-----5--2-----0--0-------|
--2-----------3-----3-------------------------------|
----------------------------------------------------|
----------------------------------------------------|
----------------------------------------------------|
----------------------------------------------------|


--------0--------------0--5-----5--2-----0--0-------|
--2-----------3-----3-------------------------------|
----------------------------------------------------|
----------------------------------------------------|
----------------------------------------------------|
----------------------------------------------------|


--------0-----------------2-----------------0L------|
--2-----------3-----2--3----------------------------|
----------------------------------------------------|
----------------------------------------------------|
----------------------------------------------------|
----------------------------------------------------|


--0--------------------0--5-----5--2-----0--0-------|
--------------------3-------------------------------|
----------------------------------------------------|
----------------------------------------------------|
----------------------------------------------------|
----------------------------------------------------|


--------0--------------0--5-----5--2-----0--0-------|
--2-----------3-----3-------------------------------|
----------------------------------------------------|
----------------------------------------------------|
----------------------------------------------------|
----------------------------------------------------|


--------0--------------0--5-----5--2-----0--0-------|
--2-----------3-----3-------------------------------|
----------------------------------------------------|
----------------------------------------------------|
----------------------------------------------------|
----------------------------------------------------|


--------0-----------------2-----------------0L------|
--2-----------3-----2--3----------------------------|
----------------------------------------------------|
----------------------------------------------------|
----------------------------------------------------|
----------------------------------------------------|


--0-----------------------------5--3--0-------------|
-----------------------------------------3--2--3----|
----------------------------------------------------|
----------------------------------------------------|
----------------------------------------------------|
----------------------------------------------------|


--0-----5--4-----7--5-----------5--3--0-------------|
-----------------------------------------3--2--3----|
----------------------------------------------------|
----------------------------------------------------|
----------------------------------------------------|
----------------------------------------------------|


--0-----5--4-----7--5-----------5--3--0-------------|
-----------------------------------------3--2--3----|
----------------------------------------------------|
----------------------------------------------------|
----------------------------------------------------|
----------------------------------------------------|


--0-----5--4-----7--5-----9-----------7L------------|
----------------------------------------------------|
----------------------------------------------------|
----------------------------------------------------|
----------------------------------------------------|
----------------------------------------------------|


--7-----------------------9--------10-7--------5----|
----------------------------------------------------|
----------------------------------------------------|
----------------------------------------------------|
----------------------------------------------------|
----------------------------------------------------|


--4-----4-----5-----------0--------5-----------0----|
--------------------2--3--------------7-------------|
----------------------------------------------------|
----------------------------------------------------|
----------------------------------------------------|
----------------------------------------------------|


--------------------------9--------10-7--------5----|
--3-----2-----3-------------------------------------|
----------------------------------------------------|
----------------------------------------------------|
----------------------------------------------------|
----------------------------------------------------|


--4-----4-----5-----------0--------5-----------0----|
--------------------2--3--------------7-------------|
----------------------------------------------------|
----------------------------------------------------|
----------------------------------------------------|
----------------------------------------------------|


--------------------------0--------0----------------|
--3-----2-----3-----2--3--------3--------3--3-------|
----------------------------------------------------|
----------------------------------------------------|
----------------------------------------------------|
----------------------------------------------------|


--0-----------------------2-----0--2-----0--0-------|
--------3--3--------2--3----------------------------|
----------------------------------------------------|
----------------------------------------------------|
----------------------------------------------------|
----------------------------------------------------|


--2-----0--0--------0--0--2-----2--2-----2--2-------|
----------------------------------------------------|
----------------------------------------------------|
----------------------------------------------------|
----------------------------------------------------|
----------------------------------------------------|


--3-----3--3-----3--5-----0-----0-----------0-------|
-----------------------------------------2----------|
----------------------------------------------------|
----------------------------------------------------|
----------------------------------------------------|
----------------------------------------------------|


-----------------------0--5-----5--2-----0--0-------|
--3-----------------3-------------------------------|
----------------------------------------------------|
----------------------------------------------------|
----------------------------------------------------|
----------------------------------------------------|


--------0--------------0--5-----5--2-----0--0-------|
--2-----------3-----3-------------------------------|
----------------------------------------------------|
----------------------------------------------------|
----------------------------------------------------|
----------------------------------------------------|


--------0--------------0--5-----5--2-----0--0-------|
--2-----------3-----3-------------------------------|
----------------------------------------------------|
----------------------------------------------------|
----------------------------------------------------|
----------------------------------------------------|


--------0-----------------2-----------------0L------|
--2-----------3-----2--3----------------------------|
----------------------------------------------------|
----------------------------------------------------|
----------------------------------------------------|
----------------------------------------------------|


--0--------------------------------9-----9--9--10---|
----------------------------------------------------|
----------------------------------------------------|
----------------------------------------------------|
----------------------------------------------------|
----------------------------------------------------|


--7--------5--5-----5L----5--------------4-----4----|
--------------------------------5-----5-------------|
----------------------------------------------------|
----------------------------------------------------|
----------------------------------------------------|
----------------------------------------------------|


--5--------------------------------9-----9--9--10---|
----------------------------------------------------|
----------------------------------------------------|
----------------------------------------------------|
----------------------------------------------------|
----------------------------------------------------|


--7--------5--5-----5L----5-----0-----2--------0----|
-----------------------------------------2----------|
----------------------------------------------------|
----------------------------------------------------|
----------------------------------------------------|
----------------------------------------------------|


--------------------2--0----------------------------|
--3--------------------------------------2--3-------|
--------------------------2--------2----------------|
----------------------------------------------------|
----------------------------------------------------|
----------------------------------------------------|


--2-----0L----0-----0--0--2--------2-----5----------|
--------------------------------------------5-------|
----------------------------------------------------|
----------------------------------------------------|
----------------------------------------------------|
----------------------------------------------------|


--------------------2--0----------------------------|
--3--------------------------------------2--3-------|
--------------------------2--------2----------------|
----------------------------------------------------|
----------------------------------------------------|
----------------------------------------------------|


--2-----0L----0-----0--0--2--------2-----5----------|
--------------------------------------------5-------|
----------------------------------------------------|
----------------------------------------------------|
----------------------------------------------------|
----------------------------------------------------|


--------------------10----9--10-7--5--4--5-----5----|
--3-------------------------------------------------|
----------------------------------------------------|
----------------------------------------------------|
----------------------------------------------------|
----------------------------------------------------|


--4--5--3-------------------------------------------|
-----------5--2--3-----3--2--3--2-------------------|
-----------------------------------4--2--2-----2----|
----------------------------------------------------|
----------------------------------------------------|
----------------------------------------------------|


-----------0--------10----9--10-7--5--4--5-----5----|
--------2-----3-------------------------------------|
-----2----------------------------------------------|
--4-------------------------------------------------|
----------------------------------------------------|
----------------------------------------------------|


--4--5--3--0----------------------------------------|
--------------2--3-----3--2--3--2-------------------|
-----------------------------------4--2--2-----2----|
----------------------------------------------------|
----------------------------------------------------|
----------------------------------------------------|


-----------0--------------0--------0----------------|
--------2-----3-----2--3--------3--------3--3-------|
-----2----------------------------------------------|
--4-------------------------------------------------|
----------------------------------------------------|
----------------------------------------------------|


--0-----------------------2-----0--2-----0--0-------|
--------3--3--------2--3----------------------------|
----------------------------------------------------|
----------------------------------------------------|
----------------------------------------------------|
----------------------------------------------------|


--2-----0--0--------0--0--2-----2--2-----2--2-------|
----------------------------------------------------|
----------------------------------------------------|
----------------------------------------------------|
----------------------------------------------------|
----------------------------------------------------|


--3-----3--3-----3--5-----0-----0-----------0-------|
-----------------------------------------2----------|
----------------------------------------------------|
----------------------------------------------------|
----------------------------------------------------|
----------------------------------------------------|


-----------------------0--5-----5--2-----0--0-------|
--3-----------------3-------------------------------|
----------------------------------------------------|
----------------------------------------------------|
----------------------------------------------------|
----------------------------------------------------|

www.chordzone.org
 

--------0--------------0--5-----5--2-----0--0-------|
--2-----------3-----3-------------------------------|
----------------------------------------------------|
----------------------------------------------------|
----------------------------------------------------|
----------------------------------------------------|


--------0--------------0--5-----5--2-----0--0-------|
--2-----------3-----3-------------------------------|
----------------------------------------------------|
----------------------------------------------------|
----------------------------------------------------|
----------------------------------------------------|


--------0-----------------5-----------------12L-----|--12------------||
--2-----------3-----2--3----------------------------|----------------||
----------------------------------------------------|----------------||
----------------------------------------------------|----------------||
----------------------------------------------------|----------------||
----------------------------------------------------|----------------||


Recommended for you:


Click to rate this post!
[Total: 0 Average: 0]

To The Top Get The Guitar Tabs

See Also