Now Reading
BRUNO MARS, ANDERSON .PAAK, SILK SONIC – Leave The Door Open Guitar Tabs

BRUNO MARS, ANDERSON .PAAK, SILK SONIC – Leave The Door Open Guitar Tabs

Enable Light Mode
#
A+
A-

This single was released on 05 March 2021. The vocals are by Bruno Mars, Anderson .Paak, Silk Sonic, the music is produced by Brody Brown, D’Mile, Bruno Mars , Anderson .Paak, and the lyrics are written by D’Mile , Bruno Mars.
This song is originally in the key of A Minor. You can change it to any key you want, using the Transpose option. The average tempo is 74 BPM. These chords are simple and easy to play on the guitar, ukulele or piano.

Click here for the chords and lyrics version

 
Original Key: A Minor
Time Signature: 4/4
Tempo: 74
Suggested Strumming: DU,DU,DU,DU
c h o r d  z o n e . o r g
 
 Legend
L - tied note
x - dead note
h - hammer on/pull off
b - bend
s - slide
~ - vibrato
g - ghost note
> - accentuated note
t - trill
M - palm mute
. - staccato
P - popping (bass)
S - slapping (bass)
+ - tapping
W - wide vibrato
< - fade in
w - whammy bar
= - tremolo picking
v - brush up
^ - brush down
V - pick stroke up
n - pick stroke down


E |--------------------------------------------0--0----|
B |----------------------------------------------------|
G |----------------------------------------------------|
D |----------------------------------------------------|
A |----------------------------------------------------|
E |----------------------------------------------------|


--------------------0--0--------------------0-------|
-----------------------------------------1-----1----|
--2-----------------------2-------------------------|
----------------------------------------------------|
----------------------------------------------------|
----------------------------------------------------|


--------------------0-----------------------0-------|
--3--------------1-----1--3--------------1-----1----|
----------------------------------------------------|
----------------------------------------------------|
----------------------------------------------------|
----------------------------------------------------|


--------------------------------------------0-------|
--3-----------------1-----1--3-----------1----------|
-----------------------2----------------------------|
----------------------------------------------------|
----------------------------------------------------|
----------------------------------------------------|


--------------------0-----------------------0-------|
-----------------1-----1--3-------------------------|
--2-------------------------------------------------|
----------------------------------------------------|
----------------------------------------------------|
----------------------------------------------------|


--------5-----3--0----------------------------------|
--------------------3-----3--------------1--1--1----|
--2-------------------------------------------------|
----------------------------------------------------|
----------------------------------------------------|
----------------------------------------------------|

www.chordzone.org
 

--0-----------------0-----------------0-------------|
--------1-----1-----------1-----1--1--------1-------|
----------------------------------------------------|
----------------------------------------------------|
----------------------------------------------------|
----------------------------------------------------|


--------0-----------------0-----------0-------------|
--1--1--------1-----1--1--------1-----------1-------|
----------------------------------------------------|
----------------------------------------------------|
----------------------------------------------------|
----------------------------------------------------|


--------3--1--3--1-----3--------3--1--3--1-----3L---|
--------------------4-----------------------4-------|
----------------------------------------------------|
----------------------------------------------------|
----------------------------------------------------|
----------------------------------------------------|


--3-----3--1--3--1-----1--------3-------------------|
--------------------4-----------------------1-------|
----------------------------------------------------|
----------------------------------------------------|
----------------------------------------------------|
----------------------------------------------------|


--------------------1--3L---|
--1--1--3--3--4--4----------|
----------------------------|
----------------------------|
----------------------------|
----------------------------|


--3-----------------0-----0-----1-----------8L------|
-----------------------3--------------8-------------|
----------------------------------------------------|
----------------------------------------------------|
----------------------------------------------------|
----------------------------------------------------|


--8-----5L----5-----------5--5--5--5--5-----5L------|
----------------------------------------------------|
----------------------------------------------------|
----------------------------------------------------|
----------------------------------------------------|
----------------------------------------------------|


--5-----3L----3-----------------------------7L------|
--------------------5--3--5-----6-----8-------------|
----------------------------------------------------|
----------------------------------------------------|
----------------------------------------------------|
----------------------------------------------------|


--7-----1--0L-0-----------7--7--7--7--7-----8L------|
----------------------------------------------------|
----------------------------------------------------|
----------------------------------------------------|
----------------------------------------------------|
----------------------------------------------------|


--8-----0L----0-----8L----8-----0-----0--3-----5L---|
----------------------------------------------------|
----------------------------------------------------|
----------------------------------------------------|
----------------------------------------------------|
----------------------------------------------------|


--5--3--5--3--5--3--5--3--5--3--5--5--7--5--3--3----|
----------------------------------------------------|
----------------------------------------------------|
----------------------------------------------------|
----------------------------------------------------|
----------------------------------------------------|


-----3-----5L-5-----------7--8--7--8--7-------------|--7----|--6-------------|
--------------------------------------------8-------|-------|----------------|
----------------------------------------------------|-------|----------------|
----------------------------------------------------|-------|----------------|
----------------------------------------------------|-------|----------------|
----------------------------------------------------|-------|----------------|


-----0--0--------------------0--0-------------------|
----------------------------------------------------|
-----------2-----------------------2----------------|
----------------------------------------------------|
----------------------------------------------------|
----------------------------------------------------|


-----0-----------------------0----------------------|
--1-----1--3--------------1-----1--3----------------|
----------------------------------------------------|
----------------------------------------------------|
----------------------------------------------------|
----------------------------------------------------|


-----0----------------------------------------------|
--1-----1--3-----------------1-----1--3-------------|
--------------------------------2-------------------|
----------------------------------------------------|
----------------------------------------------------|
----------------------------------------------------|


-----0-----------------------0----------------------|
--1-----------------------1-----1--3----------------|
-----------2L-2-------------------------------------|
----------------------------------------------------|
----------------------------------------------------|
----------------------------------------------------|


-----0-----------5-----3--0-------------------------|
-----------------------------3-----3L-3-------------|
-----------2----------------------------------------|
----------------------------------------------------|
----------------------------------------------------|
----------------------------------------------------|


-----------0L-0--------------0-----------------0----|
--1--1--1--------1-----1L-1--------1-----1--1-------|
----------------------------------------------------|
----------------------------------------------------|
----------------------------------------------------|
----------------------------------------------------|


-----------------0-----------------0L-0--------0L---|
-----1-----1--1--------1-----1--1--------1----------|
----------------------------------------------------|
----------------------------------------------------|
----------------------------------------------------|
----------------------------------------------------|


--0--------------3--1--3--1-----3--------3--1--3----|
-----1-----------------------4----------------------|
----------------------------------------------------|
----------------------------------------------------|
----------------------------------------------------|
----------------------------------------------------|


--1-----3--------3--1--3--1-----1--------3----------|
-----4-----------------------4----------------------|
----------------------------------------------------|
----------------------------------------------------|
----------------------------------------------------|
----------------------------------------------------|


-----------------------------------------------1----|
-----1-----1-----1-----3-----3-----4-----4----------|
----------------------------------------------------|
----------------------------------------------------|
----------------------------------------------------|
----------------------------------------------------|


-----3L-------3--------------0-----0-----1-----3----|
--------------------------------3-------------------|
----------------------------------------------------|
----------------------------------------------------|
----------------------------------------------------|
----------------------------------------------------|


-----8L-------8--5L-------5--------5--5--5--5--5----|
----------------------------------------------------|
----------------------------------------------------|
----------------------------------------------------|
----------------------------------------------------|
----------------------------------------------------|


-----5-----------3L-------3--0-----0-----1-----3----|
--------------------------------3-------------------|
----------------------------------------------------|
----------------------------------------------------|
----------------------------------------------------|
----------------------------------------------------|


-----7L-------7--1--0L----0--------7--7--7--7--7----|
----------------------------------------------------|
----------------------------------------------------|
----------------------------------------------------|
----------------------------------------------------|
----------------------------------------------------|


-----8L-------8--0L-------0--8L-------8--0-----0----|
----------------------------------------------------|
----------------------------------------------------|
----------------------------------------------------|
----------------------------------------------------|
----------------------------------------------------|


--3-----5-----3--5--3--5--3--5--3--5--3--5--5--7----|
----------------------------------------------------|
----------------------------------------------------|
----------------------------------------------------|
----------------------------------------------------|
----------------------------------------------------|

www.chordzone.org
 

--5--3--3-----3-----5--------------7--8--7--8--7L---|
----------------------------------------------------|
----------------------------------------------------|
----------------------------------------------------|
----------------------------------------------------|
----------------------------------------------------|


--7--------7L-7L------------------------------------|
-----8----------------------------------------------|
----------------------------------------------------|
----------------------------------------------------|
----------------------------------------------------|
----------------------------------------------------|


--7--------6L-6-------------------------------------||
----------------------------------------------------||
----------------------------------------------------||
----------------------------------------------------||
----------------------------------------------------||
----------------------------------------------------||

 
 

Recommended for you:


Click to rate this post!
[Total: 0 Average: 0]

To The Top Get The Guitar Tabs

See Also
DILWALE DULHANIA LE JAYENGE - Tujhe Dekha Toh Chords for Guitar and Piano