Now Reading
ED SHEERAN – Bad Habits Guitar Tabs

ED SHEERAN – Bad Habits Guitar Tabs

Enable Light Mode
#
A+
A-

This single was released on 25 June 2021. The vocals are by Ed Sheeran, the music is produced by Ed Sheeran, Fred again.. , Johnny McDaid, and the lyrics are written by Ed Sheeran, Fred again.. , Johnny McDaid.
This song is originally in the key of B Minor. You can change it to any key you want, using the Transpose option. The average tempo is 122 BPM. These chords are simple and easy to play on the guitar, ukulele or piano.

Click here for the chords and lyrics version

 
Original Key: B Minor
Time Signature: 4/4
Tempo: 122
Suggested Strumming: DU,DU,DU,DU
c h o r d  z o n e . o r g
Legend
L - tied note
x - dead note
h - hammer on/pull off
b - bend
s - slide
~ - vibrato
g - ghost note
> - accentuated note
t - trill
M - palm mute
. - staccato
P - popping (bass)
S - slapping (bass)
+ - tapping
W - wide vibrato
< - fade in
w - whammy bar
= - tremolo picking
v - brush up
^ - brush down
V - pick stroke up
n - pick stroke down


E |-------|-----10----------14----9----|-----9-----------14----7----|
B |-------|--12----12----12------------|--10----10----10------------|
G |-------|----------------------------|----------------------------|
D |-------|----------------------------|----------------------------|
A |-------|----------------------------|----------------------------|
E |-------|----------------------------|----------------------------|


-----7--------7--9-----7----|-----7--------7--9-----10---|
--8-----8-------------------|--8-----8-------------------|
----------------------------|----------------------------|
----------------------------|----------------------------|
----------------------------|----------------------------|
----------------------------|----------------------------|


-----10----------14----9----|-----9-----------14----7----|
--12----12----12------------|--10----10----10------------|
----------------------------|----------------------------|
----------------------------|----------------------------|
----------------------------|----------------------------|
----------------------------|----------------------------|


-----7--------7--9-----7----|-----7--------7--9-----10---|
--8-----8-------------------|--8-----8-------------------|
----------------------------|----------------------------|
----------------------------|----------------------------|
----------------------------|----------------------------|
----------------------------|----------------------------|


--9--10-9--10-9--10-9L------|--9--9--9--10-9-------------|-----3----------|
----------------------------|--------------------10L-----|--10------------|
----------------------------|----------------------------|----------------|
----------------------------|----------------------------|----------------|
----------------------------|----------------------------|----------------|
----------------------------|----------------------------|----------------|


-------|--9--10-9--10-9--10-9L------|--9--9--9--10-9-------------|
-------|----------------------------|--------------------10L-----|
-------|----------------------------|----------------------------|
-------|----------------------------|----------------------------|
-------|----------------------------|----------------------------|
-------|----------------------------|----------------------------|


----------------|-------|--14-12-14-12-14-12-12L-----|
--10-12---------|-------|----------------------------|
----------------|-------|----------------------------|
----------------|-------|----------------------------|
----------------|-------|----------------------------|
----------------|-------|----------------------------|


--12-14-14-14-14----17L-----|--17------------|-----------------------9----|
----------------------------|-----12---------|--------------------12------|
----------------------------|----------------|----------------------------|
----------------------------|----------------|----------------------------|
----------------------------|----------------|----------------------------|
----------------------------|----------------|----------------------------|


--10-------12L12----14L-----|--14-17L17----17----14------|--19---|
----------------------------|----------------------------|-------|
----------------------------|----------------------------|-------|
----------------------------|----------------------------|-------|
----------------------------|----------------------------|-------|
----------------------------|----------------------------|-------|


--------2-----2--0--0-------|----------------------------|
-----0-----------------3----|--3-----0-----3--3--3--3L---|
----------------------------|----------------------------|
----------------------------|----------------------------|
----------------------------|----------------------------|
----------------------------|----------------------------|


--------2--3--2--0--0-------|--0--------------------0L---|
--3--------------------3----|--------0-----3--3--3-------|
----------------------------|----------------------------|
----------------------------|----------------------------|
----------------------------|----------------------------|
----------------------------|----------------------------|


--0-----2--3--2--0--0-------|--0-------------------------|
-----------------------3----|--------0-----3--3--3--3L---|
----------------------------|----------------------------|
----------------------------|----------------------------|
----------------------------|----------------------------|
----------------------------|----------------------------|


--------2--3--2--0--0-------|--0-----------0-------------|
--3--------------------3----|-----------3-----------3----|
----------------------------|----------------------------|
----------------------------|----------------------------|
----------------------------|----------------------------|
----------------------------|----------------------------|


--0--0--2-----2--0--0-------|----------------------------|
-----------------------3----|--3-----0-----3--3--3--3L---|
----------------------------|----------------------------|
----------------------------|----------------------------|
----------------------------|----------------------------|
----------------------------|----------------------------|


--------2--3--2--0--0-------|--0--------------------0L---|
--3--------------------3----|--------0-----3--3--3-------|
----------------------------|----------------------------|
----------------------------|----------------------------|
----------------------------|----------------------------|
----------------------------|----------------------------|


--0-----2--3--2--0--0-------|--0-------------------------|
-----------------------3----|--------0-----3--3--3--2L---|
----------------------------|----------------------------|
----------------------------|----------------------------|
----------------------------|----------------------------|
----------------------------|----------------------------|


--------2--3--2--0--0-------|--0-----------0-------------|
--2--------------------3----|-----------3-----------3----|
----------------------------|----------------------------|
----------------------------|----------------------------|
----------------------------|----------------------------|
----------------------------|----------------------------|


--0--0--2-----2--0--0-------|----------------|-------|
-----------------------3----|--0-------------|-------|
----------------------------|----------------|-------|
----------------------------|----------------|-------|
----------------------------|----------------|-------|
----------------------------|----------------|-------|


-----------------10----------------------14---------|
-----------12----------12L12-------12---------------|
----------------------------------------------------|
----------------------------------------------------|
----------------------------------------------------|
----------------------------------------------------|


-----9-----------9-----------------------14---------|
-----------10----------10L10-------10---------------|
----------------------------------------------------|
----------------------------------------------------|
----------------------------------------------------|
----------------------------------------------------|


-----7-----------7-----------------7-----9----------|
-----------8-----------8L-8-------------------------|
----------------------------------------------------|
----------------------------------------------------|
----------------------------------------------------|
----------------------------------------------------|


-----7-----------7-----------------7-----9----------|
-----------8-----------8----------------------------|
----------------------------------------------------|
----------------------------------------------------|
----------------------------------------------------|
----------------------------------------------------|


-----10----7-----10----7L-7--------7-----14---------|
----------------------------------------------------|
----------------------------------------------------|
----------------------------------------------------|
----------------------------------------------------|
----------------------------------------------------|


-----9-----------9-----------------------14---------|
-----------10----------10L10-------10---------------|
----------------------------------------------------|
----------------------------------------------------|
----------------------------------------------------|
----------------------------------------------------|


-----7-----------7-----------------7-----9----------|
-----------8-----------8L-8-------------------------|
----------------------------------------------------|
----------------------------------------------------|
----------------------------------------------------|
----------------------------------------------------|


-----7-----------7-----------------7-----9----------|
-----------8-----------8----------------------------|
----------------------------------------------------|
----------------------------------------------------|
----------------------------------------------------|
----------------------------------------------------|


-----10----9-----10----9-----10----9-----10----9L---|
----------------------------------------------------|
----------------------------------------------------|
----------------------------------------------------|
----------------------------------------------------|
----------------------------------------------------|


--9L----------9--9-----9-----10----9L-9-------------|
-----------------------------------------------10L--|
----------------------------------------------------|
----------------------------------------------------|
----------------------------------------------------|
----------------------------------------------------|


----------------------------------------------------|-------|
--10L---------------10-8L-8-------------------------|-------|
----------------------------------------------------|-------|
----------------------------------------------------|-------|
----------------------------------------------------|-------|
----------------------------------------------------|-------|


-----------9-----10----9-----10----9-----10----9L---|
----------------------------------------------------|
----------------------------------------------------|
----------------------------------------------------|
----------------------------------------------------|
----------------------------------------------------|


--9L----------9--9-----9-----10----9L-9--------5L---|
----------------------------------------------------|
----------------------------------------------------|
----------------------------------------------------|
----------------------------------------------------|
----------------------------------------------------|


--5L----------------5--7L-7-------------------------|-------|
----------------------------------------------------|-------|
----------------------------------------------------|-------|
----------------------------------------------------|-------|
----------------------------------------------------|-------|
----------------------------------------------------|-------|


-----------14----12----14----12----14----12----12L--|
----------------------------------------------------|
----------------------------------------------------|
----------------------------------------------------|
----------------------------------------------------|
----------------------------------------------------|


--12L---------12-14----14----14----14L14-------17L--|
----------------------------------------------------|
----------------------------------------------------|
----------------------------------------------------|
----------------------------------------------------|
----------------------------------------------------|


--17L---------------17------------------------------|
-----------------------12L12------------------------|
----------------------------------------------------|
----------------------------------------------------|
----------------------------------------------------|
----------------------------------------------------|


-----------------------------------------------7L---|
----------------------------------------------------|
----------------------------------------------------|
----------------------------------------------------|
----------------------------------------------------|
----------------------------------------------------|


--7--9-----10L10L---------10-12----------------14L--|
----------------------------------------------------|
----------------------------------------------------|
----------------------------------------------------|
----------------------------------------------------|
----------------------------------------------------|


--14-------------17L------17-------17L17-------14L--|
----------------------------------------------------|
----------------------------------------------------|
----------------------------------------------------|
----------------------------------------------------|
----------------------------------------------------|


--14-------19L19L-----------------------------------|
----------------------------------------------------|
----------------------------------------------------|
----------------------------------------------------|
----------------------------------------------------|
----------------------------------------------------|


--19-------------------2L-2--------2-----0-----0L---|
-----------------0----------------------------------|
----------------------------------------------------|
----------------------------------------------------|
----------------------------------------------------|
----------------------------------------------------|


--0-------------------------------------------------|
-----3-----3L-3--------0L-0--------3-----3-----3----|
----------------------------------------------------|
----------------------------------------------------|
----------------------------------------------------|
----------------------------------------------------|


-----------------------2-----3-----2-----0-----0----|
-----3L-------3-------------------------------------|
----------------------------------------------------|
----------------------------------------------------|
----------------------------------------------------|
----------------------------------------------------|


-----------0L-0-------------------------------------|
-----3-----------------0L-0--------3-----3-----3----|
----------------------------------------------------|
----------------------------------------------------|
----------------------------------------------------|
----------------------------------------------------|


-----0-----------------2-----3-----2-----0-----0----|
----------------------------------------------------|
----------------------------------------------------|
----------------------------------------------------|
----------------------------------------------------|
----------------------------------------------------|


-----------0L-0-------------------------------------|
-----3-----------------0L-0--------3-----3-----3----|
----------------------------------------------------|
----------------------------------------------------|
----------------------------------------------------|
----------------------------------------------------|


-----------------------2-----3-----2-----0-----0----|
-----3----------------------------------------------|
----------------------------------------------------|
----------------------------------------------------|
----------------------------------------------------|
----------------------------------------------------|


-----------0L-0--------------------0L-0-------------|
-----3-----------------------3----------------------|
----------------------------------------------------|
----------------------------------------------------|
----------------------------------------------------|
----------------------------------------------------|

www.chordzone.org
 

--------0--------0--2L----2-----2-----0-----0-------|
-----3----------------------------------------------|
----------------------------------------------------|
----------------------------------------------------|
----------------------------------------------------|
----------------------------------------------------|


----------------------------------------------------|
--3--------3L-3--------0L-0--------3-----3-----3----|
----------------------------------------------------|
----------------------------------------------------|
----------------------------------------------------|
----------------------------------------------------|


-----------------------2-----3-----2-----0-----0----|
-----3L-------3-------------------------------------|
----------------------------------------------------|
----------------------------------------------------|
----------------------------------------------------|
----------------------------------------------------|


-----------0L-0-------------------------------------|
-----3-----------------0L-0--------3-----3-----3----|
----------------------------------------------------|
----------------------------------------------------|
----------------------------------------------------|
----------------------------------------------------|


-----0-----------------2-----3-----2-----0-----0----|
----------------------------------------------------|
----------------------------------------------------|
----------------------------------------------------|
----------------------------------------------------|
----------------------------------------------------|


-----------0L-0-------------------------------------|
-----3-----------------0L-0--------3-----3-----3----|
----------------------------------------------------|
----------------------------------------------------|
----------------------------------------------------|
----------------------------------------------------|


-----------------------2-----3-----2-----0-----0----|
-----2----------------------------------------------|
----------------------------------------------------|
----------------------------------------------------|
----------------------------------------------------|
----------------------------------------------------|


-----------0L-0--------------------0L-0-------------|
-----3-----------------------3----------------------|
----------------------------------------------------|
----------------------------------------------------|
----------------------------------------------------|
----------------------------------------------------|

www.chordzone.org
 

-----------0-----0-----2L-2--------2-----0-----0----|
-----3----------------------------------------------|
----------------------------------------------------|
----------------------------------------------------|
----------------------------------------------------|
----------------------------------------------------|


----------------------------------------------------||
-----3-----0L-0L-------0L-------0-------------------||
----------------------------------------------------||
----------------------------------------------------||
----------------------------------------------------||
----------------------------------------------------||


Recommended for you:


Click to rate this post!
[Total: 0 Average: 0]

To The Top Get The Guitar Tabs

See Also