Now Reading
POWFU feat BEABADOOBEE – Death Bed (Coffee For Your Head) Guitar Tabs
POWFU feat BEABADOOBEE - Death Bed Chords and Lyrics

POWFU feat BEABADOOBEE – Death Bed (Coffee For Your Head) Guitar Tabs

Enable Light Mode
#
A+
A-

This single was released on 14 May 2020. The vocals are by Powfu , Beabadoobee, the music is produced by Powfu, ​beabadoobee, Pig (Oscar Lang) , Otterpop, and the lyrics are written by Otterpop.
This song is originally in the key of Db Major. You can change it to any key you want, using the Transpose option. The average tempo is 72 BPM. These chords are simple and easy to play on the guitar, ukulele or piano.

Click here for the chords and lyrics version

 
Original Key: Db Major
Time Signature: 4/4
Tempo: 72
Suggested Strumming: DU,DU,DU,DU
c h o r d  z o n e . o r g

  Legend
L - tied note
x - dead note
h - hammer on/pull off
b - bend
s - slide
~ - vibrato
g - ghost note
> - accentuated note
t - trill
M - palm mute
. - staccato
P - popping (bass)
S - slapping (bass)
+ - tapping
W - wide vibrato
< - fade in
w - whammy bar
= - tremolo picking
v - brush up
^ - brush down
V - pick stroke up
n - pick stroke down


E |-------|--1-----------4-----4--1L---|--1-----1--6L-6--1L-1-------|
B |-------|----------------------------|----------------------------|
G |-------|----------------------------|----------------------------|
D |-------|----------------------------|----------------------------|
A |-------|----------------------------|----------------------------|
E |-------|----------------------------|----------------------------|


--1-----------4-----4-------|--------------4--1--1-------|
-----------------------4L---|--4--2-----2-----------4----|
----------------------------|----------------------------|
----------------------------|----------------------------|
----------------------------|----------------------------|
----------------------------|----------------------------|

www.chordzone.org
 

--------------------------------------------1L------|
--4-----2-----------------2--------4----------------|
----------------------------------------------------|
----------------------------------------------------|
----------------------------------------------------|
----------------------------------------------------|


--1-----------4--1----------|-----------4-----4--1--1L---|
-----------2--------4--4----|--4-------------------------|
----------------------------|----------------------------|
----------------------------|----------------------------|
----------------------------|----------------------------|
----------------------------|----------------------------|


--1-------------------------|--1-----------4-----4--1L---|
-----------2--4--2L-2-------|----------------------------|
----------------------------|----------------------------|
----------------------------|----------------------------|
----------------------------|----------------------------|
----------------------------|----------------------------|


--1-----1--6L-6--1L-1-------|--1-----------4-----4-------|
----------------------------|-----------------------4L---|
----------------------------|----------------------------|
----------------------------|----------------------------|
----------------------------|----------------------------|
----------------------------|----------------------------|


--------------4--1--1-------|
--4--2-----2-----------4----|
----------------------------|
----------------------------|
----------------------------|
----------------------------|


--------------------------------------------1L------|
--4-----2-----------------2--------4----------------|
----------------------------------------------------|
----------------------------------------------------|
----------------------------------------------------|
----------------------------------------------------|


--1-----------4--1----------|-----------4-----4--1--1L---|
-----------2--------4--4----|--4-------------------------|
----------------------------|----------------------------|
----------------------------|----------------------------|
----------------------------|----------------------------|
----------------------------|----------------------------|


--1-------------------------|-------|--1-----------4-----4--1L---|
-----------2--4--2L-2-------|-------|----------------------------|
----------------------------|-------|----------------------------|
----------------------------|-------|----------------------------|
----------------------------|-------|----------------------------|
----------------------------|-------|----------------------------|


--1-----1--6L-6--1L-1-------|--1-----------4-----4-------|
----------------------------|-----------------------4L---|
----------------------------|----------------------------|
----------------------------|----------------------------|
----------------------------|----------------------------|
----------------------------|----------------------------|


--------------4--1--1-------|
--4--2-----2-----------4----|
----------------------------|
----------------------------|
----------------------------|
----------------------------|


--------------------------------------------1L------|
--4-----2-----------------2--------4----------------|
----------------------------------------------------|
----------------------------------------------------|
----------------------------------------------------|
----------------------------------------------------|


--1-----------4--1----------|-----------4-----4--1--1L---|
-----------2--------4--4----|--4-------------------------|
----------------------------|----------------------------|
----------------------------|----------------------------|
----------------------------|----------------------------|
----------------------------|----------------------------|


--1-------------------------|--1-----------4-----4--1L---|
-----------2--4--2L-2-------|----------------------------|
----------------------------|----------------------------|
----------------------------|----------------------------|
----------------------------|----------------------------|
----------------------------|----------------------------|


--1-----1--6L-6--1L-1-------|--1-----------4-----4-------|
----------------------------|-----------------------4L---|
----------------------------|----------------------------|
----------------------------|----------------------------|
----------------------------|----------------------------|
----------------------------|----------------------------|


--------------4--1--1-------|
--4--2-----2-----------4----|
----------------------------|
----------------------------|
----------------------------|
----------------------------|


--------------------------------------------1L------|
--4-----2-----------------2--------4----------------|
----------------------------------------------------|
----------------------------------------------------|
----------------------------------------------------|
----------------------------------------------------|

www.chordzone.org
 

--1-----------4--1----------|-----------4-----4--1--1L---|
-----------2--------4--4----|--4-------------------------|
----------------------------|----------------------------|
----------------------------|----------------------------|
----------------------------|----------------------------|
----------------------------|----------------------------|


--1-------------------------------------------------||
--------------------2-----4-----2-------------------||
----------------------------------------------------||
----------------------------------------------------||
----------------------------------------------------||
----------------------------------------------------||



  

Recommended for you:


Click to rate this post!
[Total: 0 Average: 0]

To The Top Get The Guitar Tabs

See Also