Now Reading
ROJA – Chinna Chinna Asai Guitar Tabs

ROJA – Chinna Chinna Asai Guitar Tabs

Enable Light Mode
#
A+
A-

This song is from the movie Roja(1992), released on 01 January 1992 starring Arvind Swamy, Madhoo . The vocals are by Minmini, the music is produced by Vairamuthu, and the lyrics are written by A. R. Rahman
This song is originally in the key of D Major. You can change it to any key you want, using the Transpose option. The average tempo is 86 BPM. These chords are simple and easy to play on the guitar, ukulele or piano.
Vocals: Minmini ,
Producer: A. R. Rahman ,
Writer: Vairamuthu,

Click here for the chords and lyrics version

 
Original Key: D Major
Time Signature: 4/4
Tempo: 86
Suggested Strumming: DU,DU,DU,DU
c h o r d  z o n e . o r g

Legend
L - tied note
x - dead note
h - hammer on/pull off
b - bend
s - slide
~ - vibrato
g - ghost note
> - accentuated note
t - trill
M - palm mute
. - staccato
P - popping (bass)
S - slapping (bass)
+ - tapping
W - wide vibrato
< - fade in
w - whammy bar
= - tremolo picking
v - brush up
^ - brush down
V - pick stroke up
n - pick stroke down


E |-------|-----------------2--0--3----|--2--2----------|
B |-------|-----------3L-3-------------|----------------|
G |-------|----------------------------|----------------|
D |-------|----------------------------|----------------|
A |-------|----------------------------|----------------|
E |-------|----------------------------|----------------|


-----------0--0--5--3--2----|--2--2----------|-----------------2--0--3----|
----------------------------|----------------|-----------3L-3-------------|
----------------------------|----------------|----------------------------|
----------------------------|----------------|----------------------------|
----------------------------|----------------|----------------------------|
----------------------------|----------------|----------------------------|


--2--2----------|-----------0--0--5--3--2----|--2--2----------|
----------------|----------------------------|----------------|
----------------|----------------------------|----------------|
----------------|----------------------------|----------------|
----------------|----------------------------|----------------|
----------------|----------------------------|----------------|


-----------5-----5--7--5----|--7--7L---------|--7--------7-----7--8--7----|
----------------------------|----------------|----------------------------|
----------------------------|----------------|----------------------------|
----------------------------|----------------|----------------------------|
----------------------------|----------------|----------------------------|
----------------------------|----------------|----------------------------|


--10-8--8-----------7--8----|--7--5-----5L-5--7--5--2----|
----------------------------|----------------------------|
----------------------------|----------------------------|
----------------------------|----------------------------|
----------------------------|----------------------------|
----------------------------|----------------------------|


--3-----3-----------3--2----|--0--------0L-0--5--3--2----|
----------------------------|----------------------------|
----------------------------|----------------------------|
----------------------------|----------------------------|
----------------------------|----------------------------|
----------------------------|----------------------------|


--2-----2-----------2-------|-----------------2--0--3----|--2--2----------|
-----------------------3----|--2--------3L-3-------------|----------------|
----------------------------|----------------------------|----------------|
----------------------------|----------------------------|----------------|
----------------------------|----------------------------|----------------|
----------------------------|----------------------------|----------------|


-----------0--0--5--3--2----|--2--2----------|-----------------2--0--3----|
----------------------------|----------------|-----------3L-3-------------|
----------------------------|----------------|----------------------------|
----------------------------|----------------|----------------------------|
----------------------------|----------------|----------------------------|
----------------------------|----------------|----------------------------|


--2--2----------|-----------0--0--5--3--2----|--2--2----------|
----------------|----------------------------|----------------|
----------------|----------------------------|----------------|
----------------|----------------------------|----------------|
----------------|----------------------------|----------------|
----------------|----------------------------|----------------|


-----------5-----5--5-------|--2--0----------------------|
----------------------------|--------3-------------------|
----------------------------|----------------------------|
----------------------------|----------------------------|
----------------------------|----------------------------|
----------------------------|----------------------------|


-----------------0--2--3----|--2--0----------|-----------5-----5--5-------|
-----------3L-3-------------|----------------|----------------------------|
----------------------------|----------------|----------------------------|
----------------------------|----------------|----------------------------|
----------------------------|----------------|----------------------------|
----------------------------|----------------|----------------------------|


--2--0----------------------|-----------------0--2--3----|--2--0----------|
--------3-------------------|-----------3L-3-------------|----------------|
----------------------------|----------------------------|----------------|
----------------------------|----------------------------|----------------|
----------------------------|----------------------------|----------------|
----------------------------|----------------------------|----------------|


--------------------7--5----|--7--7----------|-----------7L-7--9--10-12---|
-----------3-----3----------|----------------|----------------------------|
----------------------------|----------------|----------------------------|
----------------------------|----------------|----------------------------|
----------------------------|----------------|----------------------------|
----------------------------|----------------|----------------------------|


--10-9----------|--10----------------7--5----|--7--7----------|
----------------|-----------3-----3----------|----------------|
----------------|----------------------------|----------------|
----------------|----------------------------|----------------|
----------------|----------------------------|----------------|
----------------|----------------------------|----------------|


-----------7L-7--9--10-12---|--10-9----------|--10-------------10-8--7----|
----------------------------|----------------|-----------10L10------------|
----------------------------|----------------|----------------------------|
----------------------------|----------------|----------------------------|
----------------------------|----------------|----------------------------|
----------------------------|----------------|----------------------------|


--5--7--------------2-------|--0--------0L-0--5--3--2----|
--------8-------------------|----------------------------|
----------------------------|----------------------------|
----------------------------|----------------------------|
----------------------------|----------------------------|
----------------------------|----------------------------|


--2-----2-----------2-------|-----------------2--0--3----|--2--2----------|
-----------------------3----|--2--------3L-3-------------|----------------|
----------------------------|----------------------------|----------------|
----------------------------|----------------------------|----------------|
----------------------------|----------------------------|----------------|
----------------------------|----------------------------|----------------|


-----------0--0--5--3--2----|--2--2----------|-----------------2--0--3----|
----------------------------|----------------|-----------3L-3-------------|
----------------------------|----------------|----------------------------|
----------------------------|----------------|----------------------------|
----------------------------|----------------|----------------------------|
----------------------------|----------------|----------------------------|


--2--2----------|-----------0--0--5--3--2----|--2--2----------|
----------------|----------------------------|----------------|
----------------|----------------------------|----------------|
----------------|----------------------------|----------------|
----------------|----------------------------|----------------|
----------------|----------------------------|----------------|


-----------5-----5--7--5----|--7--7L---------|--7--------7-----7--8--7----|
----------------------------|----------------|----------------------------|
----------------------------|----------------|----------------------------|
----------------------------|----------------|----------------------------|
----------------------------|----------------|----------------------------|
----------------------------|----------------|----------------------------|

www.chordzone.org
 

--10-8--8-----------7--8----|--7--5-----5L-5--7--5--2----|
----------------------------|----------------------------|
----------------------------|----------------------------|
----------------------------|----------------------------|
----------------------------|----------------------------|
----------------------------|----------------------------|


--3-----3-----------3--2----|--0--------0L-0--5--3--2----|
----------------------------|----------------------------|
----------------------------|----------------------------|
----------------------------|----------------------------|
----------------------------|----------------------------|
----------------------------|----------------------------|


--2-----2-----------2-------|-----------------2--0--3----|--2--2----------|
-----------------------3----|--2--------3L-3-------------|----------------|
----------------------------|----------------------------|----------------|
----------------------------|----------------------------|----------------|
----------------------------|----------------------------|----------------|
----------------------------|----------------------------|----------------|


-----------0--0--5--3--2----|--2--2----------|-----------------2--0--3----|
----------------------------|----------------|-----------3L-3-------------|
----------------------------|----------------|----------------------------|
----------------------------|----------------|----------------------------|
----------------------------|----------------|----------------------------|
----------------------------|----------------|----------------------------|


--2--2----------|-----------0--0--5--3--2----|--2--2----------|-------|
----------------|----------------------------|----------------|-------|
----------------|----------------------------|----------------|-------|
----------------|----------------------------|----------------|-------|
----------------|----------------------------|----------------|-------|
----------------|----------------------------|----------------|-------|


-----------------2--0--3----|--2--2----------|-----------0--0--5--3--2----|
-----------3L-3-------------|----------------|----------------------------|
----------------------------|----------------|----------------------------|
----------------------------|----------------|----------------------------|
----------------------------|----------------|----------------------------|
----------------------------|----------------|----------------------------|


--2--2----------|-----------------2--0--3----|--2--2----------|
----------------|-----------3L-3-------------|----------------|
----------------|----------------------------|----------------|
----------------|----------------------------|----------------|
----------------|----------------------------|----------------|
----------------|----------------------------|----------------|


-----------0--0--5--3--2----|--2--2----------|-----------5-----5--7--5----|
----------------------------|----------------|----------------------------|
----------------------------|----------------|----------------------------|
----------------------------|----------------|----------------------------|
----------------------------|----------------|----------------------------|
----------------------------|----------------|----------------------------|


--7--7L---------|--7--------7-----7--8--7----|--10-8--8-----------7--8----|
----------------|----------------------------|----------------------------|
----------------|----------------------------|----------------------------|
----------------|----------------------------|----------------------------|
----------------|----------------------------|----------------------------|
----------------|----------------------------|----------------------------|


--7--5-----5L-5--7--5--2----|--3-----3-----------3--2----|
----------------------------|----------------------------|
----------------------------|----------------------------|
----------------------------|----------------------------|
----------------------------|----------------------------|
----------------------------|----------------------------|


--0--------0L-0--5--3--2----|--2-----2-----------2-------|
----------------------------|-----------------------3----|
----------------------------|----------------------------|
----------------------------|----------------------------|
----------------------------|----------------------------|
----------------------------|----------------------------|


-----------------2--0--3----|--2--2----------|-----------0--0--5--3--2----|
--2--------3L-3-------------|----------------|----------------------------|
----------------------------|----------------|----------------------------|
----------------------------|----------------|----------------------------|
----------------------------|----------------|----------------------------|
----------------------------|----------------|----------------------------|


--2--2----------|-----------------2--0--3----|--2--2----------|
----------------|-----------3L-3-------------|----------------|
----------------|----------------------------|----------------|
----------------|----------------------------|----------------|
----------------|----------------------------|----------------|
----------------|----------------------------|----------------|


-----------0--0--5--3--2----|--2--2----------|-----------5-----5--5-------|
----------------------------|----------------|----------------------------|
----------------------------|----------------|----------------------------|
----------------------------|----------------|----------------------------|
----------------------------|----------------|----------------------------|
----------------------------|----------------|----------------------------|


--2--0----------------------|-----------------0--2--3----|--2--0----------|
--------3-------------------|-----------3L-3-------------|----------------|
----------------------------|----------------------------|----------------|
----------------------------|----------------------------|----------------|
----------------------------|----------------------------|----------------|
----------------------------|----------------------------|----------------|


-----------5-----5--5-------|--2--0----------------------|
----------------------------|--------3-------------------|
----------------------------|----------------------------|
----------------------------|----------------------------|
----------------------------|----------------------------|
----------------------------|----------------------------|


-----------------0--2--3----|--2--0----------|--------------------7--5----|
-----------3L-3-------------|----------------|-----------3-----3----------|
----------------------------|----------------|----------------------------|
----------------------------|----------------|----------------------------|
----------------------------|----------------|----------------------------|
----------------------------|----------------|----------------------------|


--7--7----------|-----------7L-7--9--10-12---|--10-9----------|
----------------|----------------------------|----------------|
----------------|----------------------------|----------------|
----------------|----------------------------|----------------|
----------------|----------------------------|----------------|
----------------|----------------------------|----------------|


--10----------------7--5----|--7--7----------|-----------7L-7--9--10-12---|
-----------3-----3----------|----------------|----------------------------|
----------------------------|----------------|----------------------------|
----------------------------|----------------|----------------------------|
----------------------------|----------------|----------------------------|
----------------------------|----------------|----------------------------|


--10-9----------|--10-------------10-8--7----|--5--7--------------2-------|
----------------|-----------10L10------------|--------8-------------------|
----------------|----------------------------|----------------------------|
----------------|----------------------------|----------------------------|
----------------|----------------------------|----------------------------|
----------------|----------------------------|----------------------------|


--0--------0L-0--5--3--2----|--2-----2-----------2-------|
----------------------------|-----------------------3----|
----------------------------|----------------------------|
----------------------------|----------------------------|
----------------------------|----------------------------|
----------------------------|----------------------------|


-----------------2--0--3----|--2--2----------|-----------0--0--5--3--2----|
--2--------3L-3-------------|----------------|----------------------------|
----------------------------|----------------|----------------------------|
----------------------------|----------------|----------------------------|
----------------------------|----------------|----------------------------|
----------------------------|----------------|----------------------------|


--2--2----------|-----------------2--0--3----|--2--2----------|
----------------|-----------3L-3-------------|----------------|
----------------|----------------------------|----------------|
----------------|----------------------------|----------------|
----------------|----------------------------|----------------|
----------------|----------------------------|----------------|


-----------0--0--5--3--2----|--2--2----------|-----------5-----5--7--5----|
----------------------------|----------------|----------------------------|
----------------------------|----------------|----------------------------|
----------------------------|----------------|----------------------------|
----------------------------|----------------|----------------------------|
----------------------------|----------------|----------------------------|


--7--7L---------|--7--------7-----7--8--7----|--10-8--8-----------7--8----|
----------------|----------------------------|----------------------------|
----------------|----------------------------|----------------------------|
----------------|----------------------------|----------------------------|
----------------|----------------------------|----------------------------|
----------------|----------------------------|----------------------------|

www.chordzone.org
 

--7--5-----5L-5--7--5--2----|--3-----3-----------3--2----|
----------------------------|----------------------------|
----------------------------|----------------------------|
----------------------------|----------------------------|
----------------------------|----------------------------|
----------------------------|----------------------------|


--0--------0L-0--5--3--2----|--2-----2-----------2-------|
----------------------------|-----------------------3----|
----------------------------|----------------------------|
----------------------------|----------------------------|
----------------------------|----------------------------|
----------------------------|----------------------------|


-----------------2--0--3----|--2--2----------|-----------0--0--5--3--2----|
--2--------3L-3-------------|----------------|----------------------------|
----------------------------|----------------|----------------------------|
----------------------------|----------------|----------------------------|
----------------------------|----------------|----------------------------|
----------------------------|----------------|----------------------------|


--2--2----------|-----------------2--0--3----|--2--2----------|
----------------|-----------3L-3-------------|----------------|
----------------|----------------------------|----------------|
----------------|----------------------------|----------------|
----------------|----------------------------|----------------|
----------------|----------------------------|----------------|


-----------0--0--5--3--2----|--2-----2L----------2-------||
----------------------------|----------------------------||
----------------------------|----------------------------||
----------------------------|----------------------------||
----------------------------|----------------------------||
----------------------------|----------------------------||
 

Recommended for you:


Click to rate this post!
[Total: 0 Average: 0]

To The Top Get The Guitar Tabs

See Also