MALIK – Theerame Guitar Tabs

Enable Light Mode
#
A+
A-

This song is from the movie Malik(2021), released on 10 July 2021 starring Fahad Fasil, Nimisha Sajayan, Joju George. The vocals are by K S Chithra, Sooraj Santhosh, the music is produced by Anwar Ali, and the lyrics are written by Sushin Shyam
This song is originally in the key of G Major. You can change it to any key you want, using the Transpose option. The average tempo is 230 BPM. These chords are simple and easy to play on the guitar, ukulele or piano.

Click here for the chords and lyrics version
Requested By ABHIRAM

 
Original Key: G Major
Time Signature: 7/8
Tempo: 130
Suggested Strumming: D,D,D,D,D,D,D
c h o r d  z o n e . o r g

 
Legend
L - tied note
x - dead note
h - hammer on/pull off
b - bend
s - slide
~ - vibrato
g - ghost note
> - accentuated note
t - trill
M - palm mute
. - staccato
P - popping (bass)
S - slapping (bass)
+ - tapping
W - wide vibrato
< - fade in
w - whammy bar
= - tremolo picking
v - brush up
^ - brush down
V - pick stroke up
n - pick stroke down


E |-------------------------|-------------------------|
B |-------------------------|-------------------------|
G |-------------------------|-------------------------|
D |-------------------------|-------------------------|
A |-------------------------|-------------------------|
E |-------------------------|-------------------------|


--5-----7--------3--5----|--5-----7--3-----3--5----|--5-----7--------3--3----|
-----------8-------------|-------------------------|-----------8-------------|
-------------------------|-------------------------|-------------------------|
-------------------------|-------------------------|-------------------------|
-------------------------|-------------------------|-------------------------|
-------------------------|-------------------------|-------------------------|


--3--------3--5--3--5----|--5-----7--------3--5----|--5-----7----------------|
-------------------------|-----------8-------------|-----------8-----8-------|
-------------------------|-------------------------|-------------------------|
-------------------------|-------------------------|-------------------------|
-------------------------|-------------------------|-------------------------|
-------------------------|-------------------------|-------------------------|


--7--7--5--7-------------|--3--------3--5--10-8----|--2-----3--3-------------|
-----------------8-------|-------------------------|-------------------------|
-------------------------|-------------------------|-------------------------|
-------------------------|-------------------------|-------------------------|
-------------------------|-------------------------|-------------------------|
-------------------------|-------------------------|-------------------------|


--2-----3--3-------------|--3-----2--3--2--0-------|--0-----2--2-------------|
-------------------------|--------------------3----|-------------------------|
-------------------------|-------------------------|-------------------------|
-------------------------|-------------------------|-------------------------|
-------------------------|-------------------------|-------------------------|
-------------------------|-------------------------|-------------------------|


--------0--0-------------|-----2--3--7-----8--10---|--8-----5--5-----3--2----|
--3----------------------|--3----------------------|-------------------------|
-------------------------|-------------------------|-------------------------|
-------------------------|-------------------------|-------------------------|
-------------------------|-------------------------|-------------------------|
-------------------------|-------------------------|-------------------------|


--2-----3--5-------------|--7-----3--3-------------|--5-----2--0-------------|
-------------------------|-------------------------|-------------------------|
-------------------------|-------------------------|-------------------------|
-------------------------|-------------------------|-------------------------|
-------------------------|-------------------------|-------------------------|
-------------------------|-------------------------|-------------------------|


--3-----2--3--2--0-------|--0-----2--2-------------|-----------0L------------|
--------------------3----|-------------------------|--0--1--3----------------|
-------------------------|-------------------------|-------------------------|
-------------------------|-------------------------|-------------------------|
-------------------------|-------------------------|-------------------------|
-------------------------|-------------------------|-------------------------|

www.chordzone.org
 

--0--------3--2----------|--------2--3-----2L------|--2--------0--2--3--5----|
-----------------3--0----|--0----------------------|-------------------------|
-------------------------|-------------------------|-------------------------|
-------------------------|-------------------------|-------------------------|
-------------------------|-------------------------|-------------------------|
-------------------------|-------------------------|-------------------------|


--7-----7--7-----7--5----|--7-----7--7-----10------|--8-----7--8--7--5--3----|
-------------------------|-------------------------|-------------------------|
-------------------------|-------------------------|-------------------------|
-------------------------|-------------------------|-------------------------|
-------------------------|-------------------------|-------------------------|
-------------------------|-------------------------|-------------------------|


--3--5-------------------|--7--7--5--7-----3-------|--2-----3--------5--7----|
-------------------------|-------------------------|-----------5-------------|
-------------------------|-------------------------|-------------------------|
-------------------------|-------------------------|-------------------------|
-------------------------|-------------------------|-------------------------|
-------------------------|-------------------------|-------------------------|


--8-----7--8--7--5--3----|--5--2-------------------|--4--5--8--7--8--10-13---|
-------------------------|-------------------------|-------------------------|
-------------------------|-------------------------|-------------------------|
-------------------------|-------------------------|-------------------------|
-------------------------|-------------------------|-------------------------|
-------------------------|-------------------------|-------------------------|


--12----11-12------------|--10----12-14----14-12---|--10----9--10------------|
-------------------------|-------------------------|-------------------------|
-------------------------|-------------------------|-------------------------|
-------------------------|-------------------------|-------------------------|
-------------------------|-------------------------|-------------------------|
-------------------------|-------------------------|-------------------------|


--12----7--7-----7--10---|--8--7--5--3--2--0-------|--0--------7-----5--3----|
-------------------------|--------------------3----|-------------------------|
-------------------------|-------------------------|-------------------------|
-------------------------|-------------------------|-------------------------|
-------------------------|-------------------------|-------------------------|
-------------------------|-------------------------|-------------------------|


--2--------0-------------|--0--------7--5--3-------|--2--------5--3--2-------|
-----------------3-------|-------------------------|--------------------3----|
-------------------------|-------------------------|-------------------------|
-------------------------|-------------------------|-------------------------|
-------------------------|-------------------------|-------------------------|
-------------------------|-------------------------|-------------------------|


--0--------7--5--3-------|--2----------------------|--0--------7--5--3-------|
-------------------------|-------------------------|-------------------------|
-------------------------|-------------------------|-------------------------|
-------------------------|-------------------------|-------------------------|
-------------------------|-------------------------|-------------------------|
-------------------------|-------------------------|-------------------------|


--2--------5--3--2-------|--0--------0-------------|
--------------------3----|-----------------3--1----|
-------------------------|-------------------------|
-------------------------|-------------------------|
-------------------------|-------------------------|
-------------------------|-------------------------|


----------------------------------------------|-------------------------|
--3-----1--3--1-----0L------------------------|--0----------------------|
----------------------------------------------|-------------------------|
----------------------------------------------|-------------------------|
----------------------------------------------|-------------------------|
----------------------------------------------|-------------------------|


-------------------------|-------------------------|--5-----7--3-----3--5----|
-------------------------|-------------------------|-------------------------|
-------------------------|-------------------------|-------------------------|
-------------------------|-------------------------|-------------------------|
-------------------------|-------------------------|-------------------------|
-------------------------|-------------------------|-------------------------|


--5-----7--------3--5----|--5-----7--3-----3--3----|--3--------3--5--3--5----|
-----------8-------------|-------------------------|-------------------------|
-------------------------|-------------------------|-------------------------|
-------------------------|-------------------------|-------------------------|
-------------------------|-------------------------|-------------------------|
-------------------------|-------------------------|-------------------------|


--5-----7--3-----3--5----|--5-----7--------3-------|--7--7--5--7-----3-------|
-------------------------|-----------8-------------|-------------------------|
-------------------------|-------------------------|-------------------------|
-------------------------|-------------------------|-------------------------|
-------------------------|-------------------------|-------------------------|
-------------------------|-------------------------|-------------------------|


--3--------------10-8----|--2-----3--3-------------|--2-----3--3-------------|
-----------8--10---------|-------------------------|-------------------------|
-------------------------|-------------------------|-------------------------|
-------------------------|-------------------------|-------------------------|
-------------------------|-------------------------|-------------------------|
-------------------------|-------------------------|-------------------------|


--3-----2--3--2--0-------|--0-----2--2-------------|--------0--0-------------|
--------------------3----|-------------------------|--3----------------------|
-------------------------|-------------------------|-------------------------|
-------------------------|-------------------------|-------------------------|
-------------------------|-------------------------|-------------------------|
-------------------------|-------------------------|-------------------------|


-----2--3--7-----8--10---|--8-----5--5-----3--2----|--2-----3--5-------------|
--3----------------------|-------------------------|-------------------------|
-------------------------|-------------------------|-------------------------|
-------------------------|-------------------------|-------------------------|
-------------------------|-------------------------|-------------------------|
-------------------------|-------------------------|-------------------------|


--7-----3--3-------------|--5-----2--0-------------|--3-----2--3--2--0-------|
-------------------------|-------------------------|--------------------3----|
-------------------------|-------------------------|-------------------------|
-------------------------|-------------------------|-------------------------|
-------------------------|-------------------------|-------------------------|
-------------------------|-------------------------|-------------------------|


--0-----2--2-------------|-----------0L------------|--0--------3--2----------|
-------------------------|--0--1--3----------------|-----------------3--0----|
-------------------------|-------------------------|-------------------------|
-------------------------|-------------------------|-------------------------|
-------------------------|-------------------------|-------------------------|
-------------------------|-------------------------|-------------------------|


--------2--3-----2L------|--2--------0--2--3--5----|--7-----7--7-----7--5----|
--0----------------------|-------------------------|-------------------------|
-------------------------|-------------------------|-------------------------|
-------------------------|-------------------------|-------------------------|
-------------------------|-------------------------|-------------------------|
-------------------------|-------------------------|-------------------------|


--7-----7--7-----10------|--8-----7--8--7--5--3----|--3--5-------------------|
-------------------------|-------------------------|-------------------------|
-------------------------|-------------------------|-------------------------|
-------------------------|-------------------------|-------------------------|
-------------------------|-------------------------|-------------------------|
-------------------------|-------------------------|-------------------------|


--7--7--5--7-----3-------|--2-----3--0-----5--7----|--8-----7--8--7--5--3----|
-------------------------|-------------------------|-------------------------|
-------------------------|-------------------------|-------------------------|
-------------------------|-------------------------|-------------------------|
-------------------------|-------------------------|-------------------------|
-------------------------|-------------------------|-------------------------|


--5--2L----------2-------|--4--5--8--7--8--10-13---|--12----11-12------------|
-------------------------|-------------------------|-------------------------|
-------------------------|-------------------------|-------------------------|
-------------------------|-------------------------|-------------------------|
-------------------------|-------------------------|-------------------------|
-------------------------|-------------------------|-------------------------|


--10----12-14----14-12---|--10----9--10------------|--12----7--7-----7--10---|
-------------------------|-------------------------|-------------------------|
-------------------------|-------------------------|-------------------------|
-------------------------|-------------------------|-------------------------|
-------------------------|-------------------------|-------------------------|
-------------------------|-------------------------|-------------------------|


--8--7--5--3--2--0-------|--0--------7-----5--3----|--2--------0-------------|
--------------------3----|-------------------------|-----------------3-------|
-------------------------|-------------------------|-------------------------|
-------------------------|-------------------------|-------------------------|
-------------------------|-------------------------|-------------------------|
-------------------------|-------------------------|-------------------------|


--0--------7--5--3-------|--2--------5--3--2-------|--0--------7--5--3-------|
-------------------------|--------------------3----|-------------------------|
-------------------------|-------------------------|-------------------------|
-------------------------|-------------------------|-------------------------|
-------------------------|-------------------------|-------------------------|
-------------------------|-------------------------|-------------------------|

www.chordzone.org
 

--2----------------------|--0--------7--5--3-------|--2--------5--3--2-------|
-------------------------|-------------------------|--------------------3----|
-------------------------|-------------------------|-------------------------|
-------------------------|-------------------------|-------------------------|
-------------------------|-------------------------|-------------------------|
-------------------------|-------------------------|-------------------------|


--0--------0-------------|----------------------------------------------|
-----------------3--1----|--3-----1--3--1-----0L----------------0L------|
-------------------------|----------------------------------------------|
-------------------------|----------------------------------------------|
-------------------------|----------------------------------------------|
-------------------------|----------------------------------------------|


----------------------------------------------||
--0L----------------0-------------------------||
----------------------------------------------||
----------------------------------------------||
----------------------------------------------||
----------------------------------------------||


Recommended for you:


Click to rate this post!
[Total: 0 Average: 0]

To The Top Get The Guitar Tabs

See Also