Now Reading
ROJA – Kaadhal Rojave Guitar Tabs

ROJA – Kaadhal Rojave Guitar Tabs

Enable Light Mode
#
A+
A-

This song is from the movie Roja(1992), released on 03 April 1992 starring Arvind Swamy and Madhoo. The vocals are by S P Balasubrahmanyam, Sujatha Mohan, the music is produced by Vairamuthu, and the lyrics are written by A R Rahman
This song is originally in the key of E Minor. You can change it to any key you want, using the Transpose option. The average tempo is 92 BPM. These chords are simple and easy to play on the guitar, ukulele or piano.

Click here for the chords and lyrics version

 
Original Key: E Minor
Time Signature: 4/4
Tempo: 92
Suggested Strumming: DU,DU,DU,DU
c h o r d  z o n e . o r g

 
Legend
L - tied note
x - dead note
h - hammer on/pull off
b - bend
s - slide
~ - vibrato
g - ghost note
> - accentuated note
t - trill
M - palm mute
. - staccato
P - popping (bass)
S - slapping (bass)
+ - tapping
W - wide vibrato
< - fade in
w - whammy bar
= - tremolo picking
v - brush up
^ - brush down
V - pick stroke up
n - pick stroke down


E |----------------------------------------------------|
B |-----------------------------------------------4----|
G |-----------------------------------------2--4-------|
D |--------------------------------------4-------------|
A |----------------------------------------------------|
E |----------------------------------------------------|


--0-----------------------------------------0--2----|
-----------------------------------------0----------|
--------------------------------------2-------------|
----------------------------------------------------|
----------------------------------------------------|
----------------------------------------------------|


----------------------------------------------------|
--3-----------------2--------------------------4----|
--------------------------4--------------2--4-------|
--------------------------------------4-------------|
----------------------------------------------------|
----------------------------------------------------|


-----------0L-0-----------------------------0--2----|
--4--------------------------------------0----------|
--------------------------------------2-------------|
----------------------------------------------------|
----------------------------------------------------|
----------------------------------------------------|


--------------------------------------2--5--7--9----|
--3-----------------2-----0-------------------------|
----------------------------------------------------|
----------------------------------------------------|
----------------------------------------------------|
----------------------------------------------------|


--5--------3--2--3--2-------|
-----------------------4----|
----------------------------|
----------------------------|
----------------------------|
----------------------------|


--0-----------------------------------2--5--7--9----|
----------------------------------------------------|
----------------------------------------------------|
----------------------------------------------------|
----------------------------------------------------|
----------------------------------------------------|


--5--------3--2--3--2-------|--0-------------|--0-----3-----2--0----------|
-----------------------4----|----------------|--------------------4-------|
----------------------------|----------------|----------------------------|
----------------------------|----------------|----------------------------|
----------------------------|----------------|----------------------------|
----------------------------|----------------|----------------------------|


--0-----3-----2--0----------|
--------------------4-------|
----------------------------|
----------------------------|
----------------------------|
----------------------------|


--0-----------4-----------0--4--5--9--7--------5----|
----------------------------------------------------|
----------------------------------------------------|
----------------------------------------------------|
----------------------------------------------------|
----------------------------------------------------|


--3--------2L-2-------------------------------------|
----------------------------------------------------|
----------------------------------------------------|
----------------------------------------------------|
----------------------------------------------------|
----------------------------------------------------|


--0-----3-----2--0----------|--0-----3-----2--0----------|
--------------------4-------|--------------------4-------|
----------------------------|----------------------------|
----------------------------|----------------------------|
----------------------------|----------------------------|
----------------------------|----------------------------|


--0-----------4-----------0--4--5--9--7--------5----|
----------------------------------------------------|
----------------------------------------------------|
----------------------------------------------------|
----------------------------------------------------|
----------------------------------------------------|


--3--------2L-2-------------------------------------|
----------------------------------------------------|
----------------------------------------------------|
----------------------------------------------------|
----------------------------------------------------|
----------------------------------------------------|


www.chordzone.org
 
--4-----4-----5-----------3--------2----------------|
----------------------------------------------------|
----------------------------------------------------|
----------------------------------------------------|
----------------------------------------------------|
----------------------------------------------------|


--4-----4-----5--9--7--5--3--------2----------------|
----------------------------------------------------|
----------------------------------------------------|
----------------------------------------------------|
----------------------------------------------------|
----------------------------------------------------|


--4-----4-----5-----------3--------2----------------|
----------------------------------------------------|
----------------------------------------------------|
----------------------------------------------------|
----------------------------------------------------|
----------------------------------------------------|


--4-----4-----5--9--7--5--3--------2L-2-------------|
----------------------------------------------------|
----------------------------------------------------|
----------------------------------------------------|
----------------------------------------------------|
----------------------------------------------------|


--0--2-----3--2-----------5--7-----8--7-------------|--14----14------|
----------------------------------------------------|----------------|
----------------------------------------------------|----------------|
----------------------------------------------------|----------------|
----------------------------------------------------|----------------|
----------------------------------------------------|----------------|


----------------------------------------------------|
-----------------------------------------------4----|
-----------------------------------------2--4-------|
--------------------------------------4-------------|
----------------------------------------------------|
----------------------------------------------------|


--0-----------------------------------------0--2----|
-----------------------------------------0----------|
--------------------------------------2-------------|
----------------------------------------------------|
----------------------------------------------------|
----------------------------------------------------|


----------------------------------------------------|
--3-----------------2--------------------------4----|
--------------------------4--------------2--4-------|
--------------------------------------4-------------|
----------------------------------------------------|
----------------------------------------------------|


-----------0L-0-----------------------------0--2----|
--4--------------------------------------0----------|
--------------------------------------2-------------|
----------------------------------------------------|
----------------------------------------------------|
----------------------------------------------------|


--------------------------------------2--5--7--9----|
--3-----------------2-----0-------------------------|
----------------------------------------------------|
----------------------------------------------------|
----------------------------------------------------|
----------------------------------------------------|


--5--------3--2--3--2-------|
-----------------------4----|
----------------------------|
----------------------------|
----------------------------|
----------------------------|


--0-----------------------------------2--5--7--9----|
----------------------------------------------------|
----------------------------------------------------|
----------------------------------------------------|
----------------------------------------------------|
----------------------------------------------------|


--5--------3--2--3--2-------|--0-------------|--0-----3-----2--0----------|
-----------------------4----|----------------|--------------------4-------|
----------------------------|----------------|----------------------------|
----------------------------|----------------|----------------------------|
----------------------------|----------------|----------------------------|
----------------------------|----------------|----------------------------|


--0-----3-----2--0----------|
--------------------4-------|
----------------------------|
----------------------------|
----------------------------|
----------------------------|


--0-----------4-----------0--4--5--9--7--------5----|
----------------------------------------------------|
----------------------------------------------------|
----------------------------------------------------|
----------------------------------------------------|
----------------------------------------------------|


--3--------2L-2-------------------------------------|
----------------------------------------------------|
----------------------------------------------------|
----------------------------------------------------|
----------------------------------------------------|
----------------------------------------------------|


--0-----3-----2--0----------|--0-----3-----2--0----------|
--------------------4-------|--------------------4-------|
----------------------------|----------------------------|
----------------------------|----------------------------|
----------------------------|----------------------------|
----------------------------|----------------------------|


--0-----------4-----------0--4--5--9--7--------5----|
----------------------------------------------------|
----------------------------------------------------|
----------------------------------------------------|
----------------------------------------------------|
----------------------------------------------------|


--3--------2L-2-------------------------------------|
----------------------------------------------------|
----------------------------------------------------|
----------------------------------------------------|
----------------------------------------------------|
----------------------------------------------------|

www.chordzone.org
 

--4-----4-----5-----------3--------2----------------|
----------------------------------------------------|
----------------------------------------------------|
----------------------------------------------------|
----------------------------------------------------|
----------------------------------------------------|


--4-----4-----5--9--7--5--3--------2----------------|
----------------------------------------------------|
----------------------------------------------------|
----------------------------------------------------|
----------------------------------------------------|
----------------------------------------------------|


--4-----4-----5-----------3--------2----------------|
----------------------------------------------------|
----------------------------------------------------|
----------------------------------------------------|
----------------------------------------------------|
----------------------------------------------------|


--4-----4-----5--9--7--5--3--------2L-2-------------|
----------------------------------------------------|
----------------------------------------------------|
----------------------------------------------------|
----------------------------------------------------|
----------------------------------------------------|


--0--2-----3--2-----------5--7-----8--7-------------|
----------------------------------------------------|
----------------------------------------------------|
----------------------------------------------------|
----------------------------------------------------|
----------------------------------------------------|


--14----------14------------||
----------------------------||
----------------------------||
----------------------------||
----------------------------||
----------------------------||


Recommended for you:


Click to rate this post!
[Total: 0 Average: 0]

To The Top Get The Guitar Tabs

See Also