Now Reading
SHREY SINGHAL – Jahaan Tum Ho Guitar Tabs

SHREY SINGHAL – Jahaan Tum Ho Guitar Tabs

Enable Light Mode
#
A+
A-

This single was released on 19 December 2016. The vocals are by Shrey Singhal, the music is produced by Abhendra Kumar Upadhyay, and the lyrics are written by Shrey Singhal .
This song is originally in the key of A Minor. You can change it to any key you want, using the Transpose option. The average tempo is 80 BPM. These chords are simple and easy to play on the guitar, ukulele or piano.

Click here for the chords and lyrics version

Requested By Chittrang Mishra

 
Original Key: A Minor
Time Signature: 4/4
Tempo: 80
Suggested Strumming: DU,DU,DU,DU
c h o r d  z o n e . o r g

 
Legend
L - tied note
x - dead note
h - hammer on/pull off
b - bend
s - slide
~ - vibrato
g - ghost note
> - accentuated note
t - trill
M - palm mute
. - staccato
P - popping (bass)
S - slapping (bass)
+ - tapping
W - wide vibrato
< - fade in
w - whammy bar
= - tremolo picking
v - brush up
^ - brush down
V - pick stroke up
n - pick stroke down


E |-------|--------------8--7--5--3----|--5--------7--5L------------|
B |-------|-----------5----------------|----------------------------|
G |-------|----------------------------|----------------------------|
D |-------|----------------------------|----------------------------|
A |-------|----------------------------|----------------------------|
E |-------|----------------------------|----------------------------|


--5--------8--8--7--5--7----|--8--7--8--10-8L------------|
----------------------------|----------------------------|
----------------------------|----------------------------|
----------------------------|----------------------------|
----------------------------|----------------------------|
----------------------------|----------------------------|

www.chordzone.org
 

--8--------8--8-----10------|--8-----7--7L-7-----7--7L---|
----------------------------|----------------------------|
----------------------------|----------------------------|
----------------------------|----------------------------|
----------------------------|----------------------------|
----------------------------|----------------------------|


--7--------7--8--7--5--3----|--5-------------|--------------8--7--5--3----|
----------------------------|----------------|-----------5----------------|
----------------------------|----------------|----------------------------|
----------------------------|----------------|----------------------------|
----------------------------|----------------|----------------------------|
----------------------------|----------------|----------------------------|


--5--------7--5L------------|--5--------8--8--7--5--7----|
----------------------------|----------------------------|
----------------------------|----------------------------|
----------------------------|----------------------------|
----------------------------|----------------------------|
----------------------------|----------------------------|


--8--7--8--10-8L------------|--8--------8--8-----10------|
----------------------------|----------------------------|
----------------------------|----------------------------|
----------------------------|----------------------------|
----------------------------|----------------------------|
----------------------------|----------------------------|


--8-----7--7L-7-----7--7----|-----7-----7--8-------------|--5----|
----------------------------|--------------------8-------|-------|
----------------------------|----------------------------|-------|
----------------------------|----------------------------|-------|
----------------------------|----------------------------|-------|
----------------------------|----------------------------|-------|


-----------5--5--3--5--7----|--8-------------|-----------7--8-------------|
----------------------------|-----8----------|--------------------8-------|
----------------------------|----------------|----------------------------|
----------------------------|----------------|----------------------------|
----------------------------|----------------|----------------------------|
----------------------------|----------------|----------------------------|


--5----|-----------5--5--3--5--7----|--8-------------|
-------|----------------------------|-----8----------|
-------|----------------------------|----------------|
-------|----------------------------|----------------|
-------|----------------------------|----------------|
-------|----------------------------|----------------|


-----------7--8-------------|--5-----------------10-12L--|
--------------------8-------|----------------------------|
----------------------------|----------------------------|
----------------------------|----------------------------|
----------------------------|----------------------------|
----------------------------|----------------------------|


--12----10-8L-8L------------|--8----|-------|--------------8--7--5--3----|
----------------------------|-------|-------|-----------5----------------|
----------------------------|-------|-------|----------------------------|
----------------------------|-------|-------|----------------------------|
----------------------------|-------|-------|----------------------------|
----------------------------|-------|-------|----------------------------|


--5--------7--5L------------|--5--------8--8--7--5--7----|
----------------------------|----------------------------|
----------------------------|----------------------------|
----------------------------|----------------------------|
----------------------------|----------------------------|
----------------------------|----------------------------|


--8--7--8--10-8L------------|--8--------8--8-----10------|
----------------------------|----------------------------|
----------------------------|----------------------------|
----------------------------|----------------------------|
----------------------------|----------------------------|
----------------------------|----------------------------|


--8-----7--7L-7-----7--7L---|--7--------7--8--7--5--3----|--5-------------|
----------------------------|----------------------------|----------------|
----------------------------|----------------------------|----------------|
----------------------------|----------------------------|----------------|
----------------------------|----------------------------|----------------|
----------------------------|----------------------------|----------------|

www.chordzone.org
 

--------------8--7--5--3----|--5--------7--5L------------|
-----------5----------------|----------------------------|
----------------------------|----------------------------|
----------------------------|----------------------------|
----------------------------|----------------------------|
----------------------------|----------------------------|


--5--------8--8--7--5--7----|--8--7--8--10-8L------------|
----------------------------|----------------------------|
----------------------------|----------------------------|
----------------------------|----------------------------|
----------------------------|----------------------------|
----------------------------|----------------------------|


--8--------8--8-----10------|--8-----7--7L-7-----7--7----|
----------------------------|----------------------------|
----------------------------|----------------------------|
----------------------------|----------------------------|
----------------------------|----------------------------|
----------------------------|----------------------------|


-----7-----7--8-------------|--5----|-----------5--5--3--5--7----|
--------------------8-------|-------|----------------------------|
----------------------------|-------|----------------------------|
----------------------------|-------|----------------------------|
----------------------------|-------|----------------------------|
----------------------------|-------|----------------------------|


--8-------------|-----------7--8-------------|--5----|
-----8----------|--------------------8-------|-------|
----------------|----------------------------|-------|
----------------|----------------------------|-------|
----------------|----------------------------|-------|
----------------|----------------------------|-------|


-----------5--5--3--5--7----|--8-------------|-----------7--8-------------|
----------------------------|-----8----------|--------------------8-------|
----------------------------|----------------|----------------------------|
----------------------------|----------------|----------------------------|
----------------------------|----------------|----------------------------|
----------------------------|----------------|----------------------------|


--5-----------------10-12L--|--12----10-8L-8L------------|--8----||
----------------------------|----------------------------|-------||
----------------------------|----------------------------|-------||
----------------------------|----------------------------|-------||
----------------------------|----------------------------|-------||
----------------------------|----------------------------|-------||


Recommended for you:


Click to rate this post!
[Total: 0 Average: 0]

To The Top Get The Guitar Tabs

See Also