skip to content

B PRAAK – Mann Bharya Guitar Tabs

#
A+
A-

This single was released on 16 March 2017. The vocals are by B Praak, the music is produced by Jaani, and the lyrics are written by B Praak.
This song is originally in the key of D Major. You can change it to any key you want, using the Transpose option. The average tempo is 94 BPM. These chords are simple and easy to play on the guitar, ukulele or piano.
Vocals: B Praak,
Producer: B Praak,
Writer: Jaani,

Click here for the chords and lyrics version

 
Original Key: D Major
Time Signature: 4/4
Tempo: 94
Suggested Strumming: DU,DU,DU,DU
c h o r d  z o n e . o r g

Legend
L - tied note
x - dead note
h - hammer on/pull off
b - bend
s - slide
~ - vibrato
g - ghost note
> - accentuated note
t - trill
M - palm mute
. - staccato
P - popping (bass)
S - slapping (bass)
+ - tapping
W - wide vibrato
< - fade in
w - whammy bar
= - tremolo picking
v - brush up
^ - brush down
V - pick stroke up
n - pick stroke down


E |--------------------5--3----|--2L----------------2-------|
B |-----------------3----------|-----------------------3----|
G |----------------------------|----------------------------|
D |----------------------------|----------------------------|
A |----------------------------|----------------------------|
E |----------------------------|----------------------------|


--0L----------0-----5--3----|
-----------------3----------|
----------------------------|
----------------------------|
----------------------------|
----------------------------|


--2-----------------------2--3--5--7--------5-------|
----------------------------------------------------|
----------------------------------------------------|
----------------------------------------------------|
----------------------------------------------------|
----------------------------------------------------|


--5--------------------------0--2--0L----0----------|
--------------------3-----3-----------------3--2L---|
----------------------------------------------------|
----------------------------------------------------|
----------------------------------------------------|
----------------------------------------------------|


----------------------------------------------------|
--2-----2--2-----3--2L-2--3L----3-------------------|
----------------------------------------------------|
----------------------------------------------------|
----------------------------------------------------|
----------------------------------------------------|


----------------------------|-----------------0--3--2----|
--------------------3--3----|--3--3--3--3--3-------------|
----------------------------|----------------------------|
----------------------------|----------------------------|
----------------------------|----------------------------|
----------------------------|----------------------------|


--0--------0--------------------2--0----------------|
--------------------3-----3-----------------3--2L---|
----------------------------------------------------|
----------------------------------------------------|
----------------------------------------------------|
----------------------------------------------------|


----------------------------------------------------|
--2-----2--2-----3--2L-2--3L----3L------------------|
----------------------------------------------------|
----------------------------------------------------|
----------------------------------------------------|
----------------------------------------------------|


----------------------------|-----------------0--3--2----|
--3-----------------3--3----|--3--3--3--3--3-------------|
----------------------------|----------------------------|
----------------------------|----------------------------|
----------------------------|----------------------------|
----------------------------|----------------------------|


--0--------0--------------------2--0----------------|
--------------------3-----3-----------------3--2L---|
----------------------------------------------------|
----------------------------------------------------|
----------------------------------------------------|
----------------------------------------------------|


----------------------------------------------------|
--2-----2--2-----3--2L-2--3L----3L------------------|
----------------------------------------------------|
----------------------------------------------------|
----------------------------------------------------|
----------------------------------------------------|


----------------------------|
--3-------------------------|
--------------------0--0----|
----------------------------|
----------------------------|
----------------------------|


----------------------------------------------------|
--0-----0--0--------------------0-----3-----2-------|
--------------------0L-0--0-------------------------|
----------------------------------------------------|
----------------------------------------------------|
----------------------------------------------------|

www.chordzone.org
 

--------------------------------------------10-10---|
----------------------------------------------------|
--4-----2L----2L----------------2-------------------|
----------------------------------------------------|
----------------------------------------------------|
----------------------------------------------------|


--9--10-9-----7--5--7--5--5L-5--------------9--12---|
----------------------------------------------------|
----------------------------------------------------|
----------------------------------------------------|
----------------------------------------------------|
----------------------------------------------------|


--10----10-9--7-----7L-7--5L----5-----3-----2-------|
----------------------------------------------------|
----------------------------------------------------|
----------------------------------------------------|
----------------------------------------------------|
----------------------------------------------------|


--0-----0--7-----7--7L-7--7L----7--7--7--10-9--12---|
----------------------------------------------------|
----------------------------------------------------|
----------------------------------------------------|
----------------------------------------------------|
----------------------------------------------------|


--10----10-9--10----10L10-10L---10L-----------------|
----------------------------------------------------|
----------------------------------------------------|
----------------------------------------------------|
----------------------------------------------------|
----------------------------------------------------|


--10----------------5--3----|--2L----------------2-------|
-----------------3----------|-----------------------3----|
----------------------------|----------------------------|
----------------------------|----------------------------|
----------------------------|----------------------------|
----------------------------|----------------------------|


--0L----------0-----5--3----|
-----------------3----------|
----------------------------|
----------------------------|
----------------------------|
----------------------------|


--2-----------------------2--3--5--7--------5-------|
----------------------------------------------------|
----------------------------------------------------|
----------------------------------------------------|
----------------------------------------------------|
----------------------------------------------------|


--5--------------------------0--2--0L----0----------|
--------------------3-----3-----------------3--2L---|
----------------------------------------------------|
----------------------------------------------------|
----------------------------------------------------|
----------------------------------------------------|


----------------------------------------------------|
--2-----2--2-----3--2L-2--3L----3-------------------|
----------------------------------------------------|
----------------------------------------------------|
----------------------------------------------------|
----------------------------------------------------|


----------------------------|-----------------0--3--2----|
--------------------3--3----|--3--3--3--3--3-------------|
----------------------------|----------------------------|
----------------------------|----------------------------|
----------------------------|----------------------------|
----------------------------|----------------------------|


--0--------0--------------------2--0----------------|
--------------------3-----3-----------------3--2L---|
----------------------------------------------------|
----------------------------------------------------|
----------------------------------------------------|
----------------------------------------------------|


----------------------------------------------------|
--2-----2--2-----3--2L-2--3L----3L------------------|
----------------------------------------------------|
----------------------------------------------------|
----------------------------------------------------|
----------------------------------------------------|


----------------------------|-----------------0--3--2----|
--3-----------------3--3----|--3--3--3--3--3-------------|
----------------------------|----------------------------|
----------------------------|----------------------------|
----------------------------|----------------------------|
----------------------------|----------------------------|


--0--------0--------------------2--0----------------|
--------------------3-----3-----------------3--2L---|
----------------------------------------------------|
----------------------------------------------------|
----------------------------------------------------|
----------------------------------------------------|


----------------------------------------------------|
--2-----2--2-----3--2L-2--3L----3L------------------|
----------------------------------------------------|
----------------------------------------------------|
----------------------------------------------------|
----------------------------------------------------|


----------------------------|
--3-------------------------|
--------------------0--0----|
----------------------------|
----------------------------|
----------------------------|


----------------------------------------------------|
--0-----0--0--------------------0-----3-----2-------|
--------------------0L-0--0-------------------------|
----------------------------------------------------|
----------------------------------------------------|
----------------------------------------------------|


www.chordzone.org
 
--------------------------------------------10-10---|
--0-------------------------------------------------|
--------2L----2L----------------2-------------------|
----------------------------------------------------|
----------------------------------------------------|
----------------------------------------------------|


--9--10-9-----7--5--7--5--5L-5--------------9--12---|
----------------------------------------------------|
----------------------------------------------------|
----------------------------------------------------|
----------------------------------------------------|
----------------------------------------------------|


--10----10-9--7-----7L-7--5L----5-----3-----2-------|
----------------------------------------------------|
----------------------------------------------------|
----------------------------------------------------|
----------------------------------------------------|
----------------------------------------------------|


--0-----0--7-----7--7L-7--7L----7--7--7--10-9--12---|
----------------------------------------------------|
----------------------------------------------------|
----------------------------------------------------|
----------------------------------------------------|
----------------------------------------------------|


--10----10-9--10----10L10-10L---10L-----------------|--10------------||
----------------------------------------------------|----------------||
----------------------------------------------------|----------------||
----------------------------------------------------|----------------||
----------------------------------------------------|----------------||
----------------------------------------------------|----------------||


Recommended for you:


POPULAR SONGS

RELATED SONGS