skip to content

ED SHEERAN – Overpass Graffiti Guitar Tabs

#
A+
A-

This song is from the album =(2021), released on 29 October 2021. The vocals are by Ed Sheeran, the music is produced by Ed Sheeran, Johnny McDaid , Fred again.., and the lyrics are written by Fred again.., Johnny McDaid , Ed Sheeran.
This song is originally in the key of A Minor. You can change it to any key you want, using the Transpose option. The average tempo is 90 BPM. These chords are simple and easy to play on the guitar, ukulele or piano.

Click here for the chords and lyrics version

 
Original Key: A Minor
Time Signature: 4/4
Tempo: 90
Suggested Strumming: DU,DU,DU,DU
c h o r d  z o n e . o r g

Legend
L - tied note
x - dead note
h - hammer on/pull off
b - bend
s - slide
~ - vibrato
g - ghost note
> - accentuated note
t - trill
M - palm mute
. - staccato
P - popping (bass)
S - slapping (bass)
+ - tapping
W - wide vibrato
< - fade in
w - whammy bar
= - tremolo picking
v - brush up
^ - brush down
V - pick stroke up
n - pick stroke down


E |-------|-----------------0--0--0----|--0-------------|
B |-------|----------------------------|-----1--3-------|
G |-------|----------------------------|----------------|
D |-------|----------------------------|----------------|
A |-------|----------------------------|----------------|
E |-------|----------------------------|----------------|


----------------------------|----------------------------|----------------|
-----------------3--3--3----|--3-----0-----------0--1L---|--1-------------|
----------------------------|----------------------------|-----0----------|
----------------------------|----------------------------|----------------|
----------------------------|----------------------------|----------------|
----------------------------|----------------------------|----------------|


----------------------------|----------------|-------|
--------------------0--1L---|--1-------------|-------|
----------------------------|-----0----------|-------|
----------------------------|----------------|-------|
----------------------------|----------------|-------|
----------------------------|----------------|-------|


-----------------0--0--0----|--0-------------|----------------------------|
----------------------------|-----1--3-------|-----------------3--3--3----|
----------------------------|----------------|----------------------------|
----------------------------|----------------|----------------------------|
----------------------------|----------------|----------------------------|
----------------------------|----------------|----------------------------|


----------------------------|----------------|----------------------------|
--3-----0-----------0--1L---|--1-------------|--------0-----0-----0--1L---|
----------------------------|-----0----------|----------------------------|
----------------------------|----------------|----------------------------|
----------------------------|----------------|----------------------------|
----------------------------|----------------|----------------------------|


----------------|-------|----------------------------|
--1-------------|-------|--3--------3--3--------3----|
-----0----------|-------|----------------------------|
----------------|-------|----------------------------|
----------------|-------|----------------------------|
----------------|-------|----------------------------|


----------------------------|-----------------------0L---|
--3--3-----3L-3--------3----|-----3-----3L-3-------------|
----------------------------|----------------------------|
----------------------------|----------------------------|
----------------------------|----------------------------|
----------------------------|----------------------------|


--0--1L-1--0L-0-------------|----------------|----------------------------|
-----------------3--1-------|----------------|----------------------------|
-----------------------2L---|--2-------------|--------------------0--2L---|
----------------------------|----------------|----------------------------|
----------------------------|----------------|----------------------------|
----------------------------|----------------|----------------------------|


----------------|-------|----------------------------|
----------------|-------|--3--------3--3--------3----|
--2-------------|-------|----------------------------|
----------------|-------|----------------------------|
----------------|-------|----------------------------|
----------------|-------|----------------------------|


----------------------------|-----------------------0L---|
--3--3-----3L-3--------3----|-----3-----3L-3-------------|
----------------------------|----------------------------|
----------------------------|----------------------------|
----------------------------|----------------------------|
----------------------------|----------------------------|


--0--1L-1--0L-0-------------|----------------|----------------------------|
-----------------3--1-------|----------------|--------------------1--3L---|
-----------------------2L---|--2-------------|----------------------------|
----------------------------|----------------|----------------------------|
----------------------------|----------------|----------------------------|
----------------------------|----------------|----------------------------|


----------------------------|----------------------------|
--3--------3L-3--------3----|--3--------1L-1-----1L-1----|
----------------------------|----------------------------|
----------------------------|----------------------------|
----------------------------|----------------------------|
----------------------------|----------------------------|


--------------0--3L-3--1L---|--1-----0L----------0-------|
----------------------------|-----------------------3L---|
----------------------------|----------------------------|
----------------------------|----------------------------|
----------------------------|----------------------------|
----------------------------|----------------------------|


----------------------------|-----0L-0-------------------|
--3--------3L-3-----1-------|--3-------------------------|
----------------------------|----------------------------|
----------------------------|----------------------------|
----------------------------|----------------------------|
----------------------------|----------------------------|


-----------------0--3--0----|--3-------------------------|
----------------------------|-----------1L-1--------1----|
----------------------------|----------------------------|
----------------------------|----------------------------|
----------------------------|----------------------------|
----------------------------|----------------------------|


--------------0--------1----|--0-------------------------|
--1--------3----------------|--------3--1L-1-------------|
----------------------------|----------------------------|
----------------------------|----------------------------|
----------------------------|----------------------------|
----------------------------|----------------------------|


--------------0--3L-3-------|--5-------|----------------------------|
----------------------------|-----3----|--3--------1--3--------1----|
----------------------------|----------|----------------------------|
----------------------------|----------|----------------------------|
----------------------------|----------|----------------------------|
----------------------------|----------|----------------------------|


-----------0L-0-------------|----------------------------|
--3-----1-------------------|-----1--3--1--3-----3--1----|
----------------------------|----------------------------|
----------------------------|----------------------------|
----------------------------|----------------------------|
----------------------------|----------------------------|


-----------0-----0--0--0----|--0-------------------------|
--3-----3-------------------|--------1--------------1L---|
----------------------------|----------------------------|
----------------------------|----------------------------|
----------------------------|----------------------------|
----------------------------|----------------------------|


----------------------------|----------------------------|
--1--1-----1--1--3L-3--3L---|--3-------------------------|
----------------------------|--------2--0L-0L-------0----|
----------------------------|----------------------------|
----------------------------|----------------------------|
----------------------------|----------------------------|


--------------------0-------|--0-----0-----0-----0-------|
-----------------------3----|-----3-----3-----3-----3----|
----------------------------|----------------------------|
----------------------------|----------------------------|
----------------------------|----------------------------|
----------------------------|----------------------------|


--0-------------------------|-------|-------|-----------------0--0--0----|
-----------1-----1L-1L-1L---|--1----|-------|----------------------------|
----------------------------|-------|-------|----------------------------|
----------------------------|-------|-------|----------------------------|
----------------------------|-------|-------|----------------------------|
----------------------------|-------|-------|----------------------------|


--0-------------|----------------------------|----------------------------|
-----1--3-------|-----------------3--3--3----|--3-----0-----------0--1L---|
----------------|----------------------------|----------------------------|
----------------|----------------------------|----------------------------|
----------------|----------------------------|----------------------------|
----------------|----------------------------|----------------------------|


----------------|----------------------------|----------------|-------|
--1-------------|--------------------0--1L---|--1-------------|-------|
-----0----------|----------------------------|-----0----------|-------|
----------------|----------------------------|----------------|-------|
----------------|----------------------------|----------------|-------|
----------------|----------------------------|----------------|-------|


-----------------0--0--0----|--0-------------|----------------------------|
----------------------------|-----1--3-------|-----------------3--3--3----|
----------------------------|----------------|----------------------------|
----------------------------|----------------|----------------------------|
----------------------------|----------------|----------------------------|
----------------------------|----------------|----------------------------|

www.chordzone.org
 

----------------------------|----------------|----------------------------|
--3-----0-----------0--1L---|--1-------------|--------0-----0-----0--1L---|
----------------------------|-----0----------|----------------------------|
----------------------------|----------------|----------------------------|
----------------------------|----------------|----------------------------|
----------------------------|----------------|----------------------------|


----------------|-------|----------------------------|
--1-------------|-------|--3--------3--3--------3----|
-----0----------|-------|----------------------------|
----------------|-------|----------------------------|
----------------|-------|----------------------------|
----------------|-------|----------------------------|


----------------------------|-----------------------0L---|
--3--3-----3L-3--------3----|-----3-----3L-3-------------|
----------------------------|----------------------------|
----------------------------|----------------------------|
----------------------------|----------------------------|
----------------------------|----------------------------|


--0--1L-1--0L-0-------------|----------------|----------------------------|
-----------------3--1-------|----------------|----------------------------|
-----------------------2L---|--2-------------|--------------------0--2L---|
----------------------------|----------------|----------------------------|
----------------------------|----------------|----------------------------|
----------------------------|----------------|----------------------------|


----------------|-------|----------------------------|
----------------|-------|--3--------3--3--------3----|
--2-------------|-------|----------------------------|
----------------|-------|----------------------------|
----------------|-------|----------------------------|
----------------|-------|----------------------------|


----------------------------|-----------------------0L---|
--3--3-----3L-3--------3----|-----3-----3L-3-------------|
----------------------------|----------------------------|
----------------------------|----------------------------|
----------------------------|----------------------------|
----------------------------|----------------------------|


--0--1L-1--0L-0-------------|----------------|----------------------------|
-----------------3--1-------|----------------|--------------------1--3L---|
-----------------------2L---|--2-------------|----------------------------|
----------------------------|----------------|----------------------------|
----------------------------|----------------|----------------------------|
----------------------------|----------------|----------------------------|


----------------------------|----------------------------|
--3--------3L-3--------3----|--3--------1L-1-----1L-1----|
----------------------------|----------------------------|
----------------------------|----------------------------|
----------------------------|----------------------------|
----------------------------|----------------------------|


--------------0--3L-3--1L---|--1-----0L----------0-------|
----------------------------|-----------------------3L---|
----------------------------|----------------------------|
----------------------------|----------------------------|
----------------------------|----------------------------|
----------------------------|----------------------------|


----------------------------|-----0L-0-------------------|
--3--------3L-3-----1-------|--3-------------------------|
----------------------------|----------------------------|
----------------------------|----------------------------|
----------------------------|----------------------------|
----------------------------|----------------------------|

www.chordzone.org
 

-----------------0--3--0----|--3-------------------------|
----------------------------|-----------1L-1--------1----|
----------------------------|----------------------------|
----------------------------|----------------------------|
----------------------------|----------------------------|
----------------------------|----------------------------|


--------------0--------1----|--0-------------------------|
--1--------3----------------|--------3--1L-1-------------|
----------------------------|----------------------------|
----------------------------|----------------------------|
----------------------------|----------------------------|
----------------------------|----------------------------|


--------------0--3L-3-------|--5-------|----------------------------|
----------------------------|-----3----|--3--------1--3--------1----|
----------------------------|----------|----------------------------|
----------------------------|----------|----------------------------|
----------------------------|----------|----------------------------|
----------------------------|----------|----------------------------|


-----------0L-0-------------|----------------------------|
--3-----1-------------------|-----1--3--1--3-----3--1----|
----------------------------|----------------------------|
----------------------------|----------------------------|
----------------------------|----------------------------|
----------------------------|----------------------------|


-----------0-----0--0--0----|--0-------------------------|
--3-----3-------------------|--------1--------------1L---|
----------------------------|----------------------------|
----------------------------|----------------------------|
----------------------------|----------------------------|
----------------------------|----------------------------|


----------------------------|----------------------------|
--1--1-----1--1--3L-3--3L---|--3-------------------------|
----------------------------|--------2--0L-0L-------0----|
----------------------------|----------------------------|
----------------------------|----------------------------|
----------------------------|----------------------------|


--------------------0-------|--0-----0-----0-----0-------|
-----------------------3----|-----3-----3-----3-----3----|
----------------------------|----------------------------|
----------------------------|----------------------------|
----------------------------|----------------------------|
----------------------------|----------------------------|


--0-------------------------|-------||
-----------1-----1L-1L------|--1----||
----------------------------|-------||
----------------------------|-------||
----------------------------|-------||
----------------------------|-------||


Recommended for you:


POPULAR SONGS

RELATED SONGS