skip to content

J. BALVIN, SKRILLEX – In Da Getto Guitar Tabs

#
A+
A-

This single was released on 02 July 2021. The vocals are by J. Balvin, Skrillex, the music is produced by Mosty, Tainy, Skrillex , J Balvin, and the lyrics are written by Tainy , Skrillex.
This song is originally in the key of Eb Minor. You can change it to any key you want, using the Transpose option. The average tempo is 130 BPM. These chords are simple and easy to play on the guitar, ukulele or piano.

Click here for the chords and lyrics version

 
Original Key: Eb Minor
Time Signature: 4/4
Tempo: 130
Suggested Strumming: DU,DU,DU,DU
c h o r d  z o n e . o r g

 
Legend
L - tied note
x - dead note
h - hammer on/pull off
b - bend
s - slide
~ - vibrato
g - ghost note
> - accentuated note
t - trill
M - palm mute
. - staccato
P - popping (bass)
S - slapping (bass)
+ - tapping
W - wide vibrato
< - fade in
w - whammy bar
= - tremolo picking
v - brush up
^ - brush down
V - pick stroke up
n - pick stroke down


E |-------|----------------------------|----------------------------|
B |-------|----------------------------|----------------------------|
G |-------|----------------------------|----------------------------|
D |-------|--2--2--2--2--1L-1--2--1----|-----2--2--2--1L-1--2--1----|
A |-------|----------------------------|----------------------------|
E |-------|----------------------------|----------------------------|


----------------------------|----------------------------|
----------------------------|----------------------------|
----------------------------|----------------------------|
--2--2--2--2--1L-1--2--1----|-----2--2--2--1L-1--2--1----|
----------------------------|----------------------------|
----------------------------|----------------------------|


--------------------7-----6-----5--6--5--5----------|
----------------------------------------------------|
----------------------------------------------------|
----------------------------------------------------|
----------------------------------------------------|
----------------------------------------------------|


--6--6-----8-----6--8-----6-----5--6--5--5----------|
----------------------------------------------------|
----------------------------------------------------|
----------------------------------------------------|
----------------------------------------------------|
----------------------------------------------------|


--6--6-----8-----6--8-----6-----5--6--5--5----------|
----------------------------------------------------|
----------------------------------------------------|
----------------------------------------------------|
----------------------------------------------------|
----------------------------------------------------|


www.chordzone.org
 
--6--6-----8-----6--8-----6-----5--6--5--5-----5----|
----------------------------------------------------|
----------------------------------------------------|
----------------------------------------------------|
----------------------------------------------------|
----------------------------------------------------|


--5-----------------8-----6--5--6-----5-------------|
-----------------------------------------8----------|
----------------------------------------------------|
----------------------------------------------------|
----------------------------------------------------|
----------------------------------------------------|


--8-----6--5--8-----6--5--6-----5--3L-3-------------|
----------------------------------------------------|
----------------------------------------------------|
----------------------------------------------------|
----------------------------------------------------|
----------------------------------------------------|


--8-----6--5-----5--5-----5--5----------------------|
----------------------------------------------------|
----------------------------------------------------|
--------------------------------------------2-------|
----------------------------------------------------|
----------------------------------------------------|


--------------------------------------0-----0-------|
----------------------------------------------------|
----------------------------------------------------|
--2-----2-----1-----1--1--1-----1-------------------|
----------------------------------------------------|
----------------------------------------------------|


--0--0--------0--------0----|--0--0--------0-----0--0----|
--------4--------4----------|--------4--------4----------|
----------------------------|----------------------------|
----------------------------|----------------------------|
----------------------------|----------------------------|
----------------------------|----------------------------|


--0--0--------0--------0----|--0--0--------0-----0--0----|
--------4--------4----------|--------4--------4----------|
----------------------------|----------------------------|
----------------------------|----------------------------|
----------------------------|----------------------------|
----------------------------|----------------------------|


--0--0--------0--------0----|--0--0--------0-----0--0----|
--------4--------4----------|--------4--------4----------|
----------------------------|----------------------------|
----------------------------|----------------------------|
----------------------------|----------------------------|
----------------------------|----------------------------|


--0--0--------0--------0----|--0--0--------0-------------|----------|-------|
--------4--------4----------|--------4--------4L-4L------|--4-------|-------|
----------------------------|----------------------------|----------|-------|
----------------------------|----------------------------|----------|-------|
----------------------------|----------------------------|----------|-------|
----------------------------|----------------------------|----------|-------|


----------------------------|----------------------------|
----------------------------|----------------------------|
----------------------------|----------------------------|
--2--2--2--2--1L-1--2--1----|-----2--2--2--1L-1--2--1----|
----------------------------|----------------------------|
----------------------------|----------------------------|


----------------------------|----------------------------|
----------------------------|----------------------------|
----------------------------|----------------------------|
--2--2--2--2--1L-1--2--1----|-----2--2--2--1L-1--2--1----|
----------------------------|----------------------------|
----------------------------|----------------------------|


--------------------7-----6-----5--6--5--5----------|
----------------------------------------------------|
----------------------------------------------------|
----------------------------------------------------|
----------------------------------------------------|
----------------------------------------------------|


--6--6-----8-----6--8-----6-----5--6--5--5----------|
----------------------------------------------------|
----------------------------------------------------|
----------------------------------------------------|
----------------------------------------------------|
----------------------------------------------------|


--6--6-----8-----6--8-----6-----5--6--5--5----------|
----------------------------------------------------|
----------------------------------------------------|
----------------------------------------------------|
----------------------------------------------------|
----------------------------------------------------|


--6--6-----8-----6--8-----6-----5--6--5--5-----5----|
----------------------------------------------------|
----------------------------------------------------|
----------------------------------------------------|
----------------------------------------------------|
----------------------------------------------------|


--5-----------------8-----6--5--6-----5-------------|
-----------------------------------------8----------|
----------------------------------------------------|
----------------------------------------------------|
----------------------------------------------------|
----------------------------------------------------|


--8-----6--5--8-----6--5--6-----5--3L-3-------------|
----------------------------------------------------|
----------------------------------------------------|
----------------------------------------------------|
----------------------------------------------------|
----------------------------------------------------|


--8-----6--5-----5--5-----5--5----------------------|
----------------------------------------------------|
----------------------------------------------------|
--------------------------------------------2-------|
----------------------------------------------------|
----------------------------------------------------|


--------------------------------------0-----0-------|
----------------------------------------------------|
----------------------------------------------------|
--2-----2-----1-----1--1--1-----1-------------------|
----------------------------------------------------|
----------------------------------------------------|


www.chordzone.org
 
--0--0--------0--------0----|--0--0--------0-----0--0----|
--------4--------4----------|--------4--------4----------|
----------------------------|----------------------------|
----------------------------|----------------------------|
----------------------------|----------------------------|
----------------------------|----------------------------|


--0--0--------0--------0----|--0--0--------0-----0--0----|
--------4--------4----------|--------4--------4----------|
----------------------------|----------------------------|
----------------------------|----------------------------|
----------------------------|----------------------------|
----------------------------|----------------------------|


--0--0--------0--------0----|--0--0--------0-----0--0----|
--------4--------4----------|--------4--------4----------|
----------------------------|----------------------------|
----------------------------|----------------------------|
----------------------------|----------------------------|
----------------------------|----------------------------|


--0--0--------0--------0----|--0--0--------0-------------|
--------4--------4----------|--------4--------4L-4L------|
----------------------------|----------------------------|
----------------------------|----------------------------|
----------------------------|----------------------------|
----------------------------|----------------------------|


----------------------------------------------------||
--4L----------------4-------------------------------||
----------------------------------------------------||
----------------------------------------------------||
----------------------------------------------------||
----------------------------------------------------||


Recommended for you:


POPULAR SONGS

RELATED SONGS