Now Reading
TERE NAAM – Tere Naam Guitar Tabs

TERE NAAM – Tere Naam Guitar Tabs

Enable Light Mode
#
A+
A-

This song is from the movie Tere Naam(2003), released on 28 June 2003 starring Salman Khan and Bhumika Chawla. The vocals are by Udit Narayan, Alka Yagnik, the music is produced by Sameer, and the lyrics are written by Himesh Reshammiya
This song is originally in the key of B Major. You can change it to any key you want, using the Transpose option. The average tempo is 90 BPM. These chords are simple and easy to play on the guitar, ukulele or piano.

Click here for the chords and lyrics version

 
Original Key: B Major
Time Signature: 4/4
Tempo: 90
Suggested Strumming: DU,DU,DU,DU
c h o r d  z o n e . o r g

 
Legend
L - tied note
x - dead note
h - hammer on/pull off
b - bend
s - slide
~ - vibrato
g - ghost note
> - accentuated note
t - trill
M - palm mute
. - staccato
P - popping (bass)
S - slapping (bass)
+ - tapping
W - wide vibrato
< - fade in
w - whammy bar
= - tremolo picking
v - brush up
^ - brush down
V - pick stroke up
n - pick stroke down


E |-------|--------------0--2-----4--2--4-----2--------2-------|
B |-------|--------4--------------------7----------------------|
G |-------|----------------------------------------------------|
D |-------|----------------------------------------------------|
A |-------|----------------------------------------------------|
E |-------|----------------------------------------------------|


www.chordzone.org
 
--------7-----6--9-----7--6--7-----4--------4-------|
-----------------------------11---------------------|
----------------------------------------------------|
----------------------------------------------------|
----------------------------------------------------|
----------------------------------------------------|


--------------0--2-----4--4--------4--------4-------|
--------4-------------------------------------------|
----------------------------------------------------|
----------------------------------------------------|
----------------------------------------------------|
----------------------------------------------------|


--------7-----6--4-----2--2--------4--2--4--0-------|
-----------------------------------------7-----4L---|
----------------------------------------------------|
----------------------------------------------------|
----------------------------------------------------|
----------------------------------------------------|


--------------0--2-----4--2--4-----2--------2-------|
--4-----4--------------------7----------------------|
----------------------------------------------------|
----------------------------------------------------|
----------------------------------------------------|
----------------------------------------------------|


--------7-----6--9-----7--6--7-----4--------4-------|
-----------------------------11---------------------|
----------------------------------------------------|
----------------------------------------------------|
----------------------------------------------------|
----------------------------------------------------|


--------------0--2-----4--4--------4--------4-------|
--------4-------------------------------------------|
----------------------------------------------------|
----------------------------------------------------|
----------------------------------------------------|
----------------------------------------------------|


--------7-----6--4-----2--2--------4--2--4--0-------|----------------|
-----------------------------------------7-----4L---|--4-------------|
----------------------------------------------------|----------------|
----------------------------------------------------|----------------|
----------------------------------------------------|----------------|
----------------------------------------------------|----------------|


--6-----7-----9-----6-----7--------------------9----|
--------------------------------------------14-11L--|
--------------------------------------------16------|
----------------------------------------------------|
----------------------------------------------------|
----------------------------------------------------|


-----------6-----4-----2--2--4--4L----4-----2-------|
--11------------------------------------------------|
----------------------------------------------------|
----------------------------------------------------|
----------------------------------------------------|
----------------------------------------------------|


--0-----------------0-----4--------4-----4--2-------|
----------------------------------------------------|
----------------------------------------------------|
----------------------------------------------------|
----------------------------------------------------|
----------------------------------------------------|


--6-----------4--------2--2-----------------7--4----|
----------------------------------------------------|
----------------------------------------------------|
----------------------------------------------------|
----------------------------------------------------|
----------------------------------------------------|


--0--2-----0--------0-----4--------4-----4--2-------|
--------------4-------------------------------------|
----------------------------------------------------|
----------------------------------------------------|
----------------------------------------------------|
----------------------------------------------------|


--6-----------4--------2--2-------------------------|
----------------------------------------------------|
----------------------------------------------------|
----------------------------------------------------|
----------------------------------------------------|
----------------------------------------------------|


--------------6--7--9--6----|
----------------------------|
----------------------------|
----------------------------|
----------------------------|
----------------------------|


--7--------------------9-----------6-----4-----2----|
--------------------14-11L11------------------------|
--------------------16------------------------------|
----------------------------------------------------|
----------------------------------------------------|
----------------------------------------------------|


--2--4--4L----4-----2-----0-----------------0-------|
----------------------------------------------------|
----------------------------------------------------|
----------------------------------------------------|
----------------------------------------------------|
----------------------------------------------------|


--4--------4-----4--2-----6-----------4--------2----|
----------------------------------------------------|
----------------------------------------------------|
----------------------------------------------------|
----------------------------------------------------|
----------------------------------------------------|


--2-----------------7--4--0--2-----0--------0-------|
--------------------------------------4-------------|
----------------------------------------------------|
----------------------------------------------------|
----------------------------------------------------|
----------------------------------------------------|


--4--------4-----4--2-----6-----------4-------------|--7----|-------|
-----------------------------------------------7----|-------|-------|
----------------------------------------------------|-------|-------|
----------------------------------------------------|-------|-------|
----------------------------------------------------|-------|-------|
----------------------------------------------------|-------|-------|


--------------------0--2-----4--2--4-----2----------|
--------------4--------------------7L-7-------------|
----------------------------------------------------|
----------------------------------------------------|
----------------------------------------------------|
----------------------------------------------------|


--2-----------7-----6--9-----7--6--7--6--4----------|
----------------------------------------------------|
----------------------------------------------------|
----------------------------------------------------|
----------------------------------------------------|
----------------------------------------------------|


--4-----------------0--2-----4--4--------4----------|
--------------4-------------------------------------|
----------------------------------------------------|
----------------------------------------------------|
----------------------------------------------------|
----------------------------------------------------|


--4-----------7-----6--4-----2--2--------4--2--4----|
-----------------------------------------------7----|
----------------------------------------------------|
----------------------------------------------------|
----------------------------------------------------|
----------------------------------------------------|


--0-----------------0--2-----4--2--4-----2----------|
-----4--------4--------------------7L-7-------------|
----------------------------------------------------|
----------------------------------------------------|
----------------------------------------------------|
----------------------------------------------------|


--------------7-----6--9-----7--6--7--6--4----------|
--7-------------------------------------------------|
----------------------------------------------------|
----------------------------------------------------|
----------------------------------------------------|
----------------------------------------------------|


--4-----------------0--2-----4--4--------4----------|
--------------4-------------------------------------|
----------------------------------------------------|
----------------------------------------------------|
----------------------------------------------------|
----------------------------------------------------|


--4-----------7-----6--4-----2--2--------4--2--4----|
-----------------------------------------------7----|
----------------------------------------------------|
----------------------------------------------------|
----------------------------------------------------|
----------------------------------------------------|


--0-------------------------------------------------|
-----4----------------------------------------------|
----------------------------------------------------|
----------------------------------------------------|
----------------------------------------------------|
----------------------------------------------------|


-----6--7--9--6--7L-7-------|
----------------------------|
----------------------------|
----------------------------|
----------------------------|
----------------------------|


--9--6-----------6-----4-----2--2--4--4-------------|
-----12---------------------------------------------|
-----18---------------------------------------------|
----------------------------------------------------|
----------------------------------------------------|
----------------------------------------------------|


--2-----0-----------------0-----4--------4-----4----|
----------------------------------------------------|
----------------------------------------------------|
----------------------------------------------------|
----------------------------------------------------|
----------------------------------------------------|


--2-----6L----6-----4--------2--2L----2-------------|
----------------------------------------------------|
----------------------------------------------------|
----------------------------------------------------|
----------------------------------------------------|
----------------------------------------------------|


--7--4--0--2-----0--------0-----4--------4-----4----|
--------------------4-------------------------------|
----------------------------------------------------|
----------------------------------------------------|
----------------------------------------------------|
----------------------------------------------------|


--2-----6L----6-----4--------2--2L----2-------------|
----------------------------------------------------|
----------------------------------------------------|
----------------------------------------------------|
----------------------------------------------------|
----------------------------------------------------|


-----------------6--7--9----|
----------------------------|
----------------------------|
----------------------------|
----------------------------|
----------------------------|

www.chordzone.org
 

--6-----7L----7-----------9--6-----------6-----4----|
-----------------------------12---------------------|
-----------------------------18---------------------|
----------------------------------------------------|
----------------------------------------------------|
----------------------------------------------------|


-----2--2--4--4-----------2-----0-------------------|
----------------------------------------------------|
----------------------------------------------------|
----------------------------------------------------|
----------------------------------------------------|
----------------------------------------------------|


--0-----4--------4-----4--------6L----6-----4L------|
--------------------------7-------------------------|
----------------------------------------------------|
----------------------------------------------------|
----------------------------------------------------|
----------------------------------------------------|


--4--2--2L----2-----------7--4--0--2-----0----------|
--------------------------------------------4-------|
----------------------------------------------------|
----------------------------------------------------|
----------------------------------------------------|
----------------------------------------------------|


--0-----4--------4-----4--2-----6L----6-----4L------|
----------------------------------------------------|
----------------------------------------------------|
----------------------------------------------------|
----------------------------------------------------|
----------------------------------------------------|


--4-----7L----7L------------------------------------|
-----7----------------------------------------------|
----------------------------------------------------|
----------------------------------------------------|
----------------------------------------------------|
----------------------------------------------------|


--7-------------------------||
----------------------------||
----------------------------||
----------------------------||
----------------------------||
----------------------------||


Recommended for you:


Click to rate this post!
[Total: 0 Average: 0]

To The Top Get The Guitar Tabs

See Also