Now Reading
GLASS ANIMALS – Heat Waves Guitar Tabs

GLASS ANIMALS – Heat Waves Guitar Tabs

Enable Light Mode
#
A+
A-

This song is from the album Dreamland(2020), released on 07 August 2020.
This album was produced by Dave Bayley. It is originally in the key of B Major. You can change it to any key you want, using the Transpose option. The average tempo is 82 BPM. These chords are simple and easy to play on the guitar or piano.
Vocals: Dave Bayley,
Producer(s): Dave Bayley,
Writer(s): Dave Bayley,

Click here for the chords and lyrics version

 
Original Key: B Major
Time Signature: 4/4
Tempo: 82
Suggested Strumming: DU,DU,DU,DU
c h o r d  z o n e . o r g


Legend
L - tied note
x - dead note
h - hammer on/pull off
b - bend
s - slide
~ - vibrato
g - ghost note
> - accentuated note
t - trill
M - palm mute
. - staccato
P - popping (bass)
S - slapping (bass)
+ - tapping
W - wide vibrato
< - fade in
w - whammy bar
= - tremolo picking
v - brush up
^ - brush down
V - pick stroke up
n - pick stroke down


E |-------|--------0--------0----------------------------------|
B |-------|--0--0--------2--------2--0--0--4-----0--4-----0----|
G |-------|----------------------------------------------------|
D |-------|----------------------------------------------------|
A |-------|----------------------------------------------------|
E |-------|----------------------------------------------------|


----------------------------------------------------|
--------0--------0L-0-------------------------------|
--1--1--------1--------1--------3--------3----------|
--------------------------4--4--------4--------4----|
----------------------------------------------------|
----------------------------------------------------|


www.chordzone.org
 
--------0--------0----------------------------------|
--0--0--------2--------2--0--0--4-----0--4-----0----|
----------------------------------------------------|
----------------------------------------------------|
----------------------------------------------------|
----------------------------------------------------|


----------------------------------------------------|
--------0--------0L-0-------------------------------|
--1--1--------1--------1--------3--------3----------|
--------------------------4--4--------4--------4L---|
----------------------------------------------------|
----------------------------------------------------|


----------------------------------------------------|
--------0-----0-----0--0--4--4--2-----2L------------|
----------------------------------------------------|
--4-------------------------------------------------|
----------------------------------------------------|
----------------------------------------------------|


----------------------------------------------------|
--2-----0-----0-----0--0--4--4--2-----2--------0L---|
----------------------------------------------------|
----------------------------------------------------|
----------------------------------------------------|
----------------------------------------------------|


----------------------------------------------------|
--0-----0-----0-----0-----4--4--2-----2L------------|
----------------------------------------------------|
----------------------------------------------------|
----------------------------------------------------|
----------------------------------------------------|


----------------------------------------------------|
--2-----0-----0-----0--0--4--4--2-----2--------0L---|
----------------------------------------------------|
----------------------------------------------------|
----------------------------------------------------|
----------------------------------------------------|


----------------------------------------------------|
--0-----0-----0-----0--0--4--4--2-----2L------------|
----------------------------------------------------|
----------------------------------------------------|
----------------------------------------------------|
----------------------------------------------------|

www.chordzone.org
 

----------------------------------------------------|
--2-----0-----0-----0--0--4--4--2-----2--------0L---|
----------------------------------------------------|
----------------------------------------------------|
----------------------------------------------------|
----------------------------------------------------|


----------------------------------------------------|
--0-----0-----0-----0-----4--4--2-----2L------------|
----------------------------------------------------|
----------------------------------------------------|
----------------------------------------------------|
----------------------------------------------------|


----------------------------------------------------|
--2-----0-----0-----0--0--4--4--2-----2--------0L---|
----------------------------------------------------|
----------------------------------------------------|
----------------------------------------------------|
----------------------------------------------------|


----------------------------------------------------|
--0-----0--2--2--0-----2L-2-----0--2--2--0-----2L---|
----------------------------------------------------|
----------------------------------------------------|
----------------------------------------------------|
----------------------------------------------------|


----------------------------------------------------|
--2-----0--2--2--0-----2L-2-----0--2--2-----0-------|
----------------------------------------------------|
----------------------------------------------------|
----------------------------------------------------|
----------------------------------------------------|


----------------------------------------------------|
--2-----0--2--2--0-----2L-2-----0--2--2--0-----2L---|
----------------------------------------------------|
----------------------------------------------------|
----------------------------------------------------|
----------------------------------------------------|


----------------------------------------------------|
--2-----0--2--2--0-----2L-2-------------------------|
--------------------------------3--3--3--3-----3L---|
----------------------------------------------------|
----------------------------------------------------|
----------------------------------------------------|


-----------0-----0-----0--2-------------------------|
--------4-----4-----4-----------4--2L-2L------------|
--3--1----------------------------------------------|
----------------------------------------------------|
----------------------------------------------------|
----------------------------------------------------|


----------------------------------------------------|
--2-----2--2--2--2--0--2--4-----0-------------------|
-----------------------------------3L-3--1L---------|
----------------------------------------------------|
----------------------------------------------------|
----------------------------------------------------|


-----------0-----0-----0--2-------------------------|
--------4-----4-----4-----------4--2L-2L------------|
--1-------------------------------------------------|
----------------------------------------------------|
----------------------------------------------------|
----------------------------------------------------|


----------------------------------------------------|
--2-----2--2--2--2--0--2--4-----0-------------------|
-----------------------------------3L-3--1L---------|
----------------------------------------------------|
----------------------------------------------------|
----------------------------------------------------|


----------------------------------------------------|
--------0-----0-----0--0--4--4--2-----2L------------|
--1-------------------------------------------------|
----------------------------------------------------|
----------------------------------------------------|
----------------------------------------------------|


----------------------------------------------------|
--2-----0-----0-----0--0--4--4--2-----2--------0L---|
----------------------------------------------------|
----------------------------------------------------|
----------------------------------------------------|
----------------------------------------------------|


----------------------------------------------------|
--0-----0-----0-----0-----4--4--2-----2L------------|
----------------------------------------------------|
----------------------------------------------------|
----------------------------------------------------|
----------------------------------------------------|


----------------------------------------------------|
--2-----0-----0-----0--0--4--4--2-----2--------0----|
----------------------------------------------------|
----------------------------------------------------|
----------------------------------------------------|
----------------------------------------------------|


--2-----------------------2-------------------------|
-----4-----2L-2-----0--------4-----2L-2-------------|
----------------------------------------------------|
----------------------------------------------------|
----------------------------------------------------|
----------------------------------------------------|


--2-------------------------------------------------|
-----4-----2L-2-----0-----4--2-----2L-2-----0L------|
----------------------------------------------------|
----------------------------------------------------|
----------------------------------------------------|
----------------------------------------------------|


--------2--2--2-------------------------------------|
--0--------------4--4--2--2L------------------------|
----------------------------------------------------|
----------------------------------------------------|
----------------------------------------------------|
----------------------------------------------------|


--------------------------------0-----2-------------|
--2-----4--2--2--2--2--2--4--------------------4L---|
----------------------------------------------------|
----------------------------------------------------|
----------------------------------------------------|
----------------------------------------------------|


-----------0--2--0----------------------------------|
--4-----4-----------4--2--2L------------------------|
----------------------------------------------------|
----------------------------------------------------|
----------------------------------------------------|
----------------------------------------------------|


--------------------------------------2-------------|
--2-----2-----2-----2-----4--------------------4L---|
----------------------------------------------------|
----------------------------------------------------|
----------------------------------------------------|
----------------------------------------------------|


--------------------------0-------------------------|
--4-----4-----4-----4--------4-----2L-2--0--0L------|
----------------------------------------------------|
----------------------------------------------------|
----------------------------------------------------|
----------------------------------------------------|


--------------------------0-------------------------|
--0-----4-----4-----4--------4-----2-----4--0L------|
----------------------------------------------------|
----------------------------------------------------|
----------------------------------------------------|
----------------------------------------------------|


----------------------------------------------------|
--0-----0-----0-----0--0--4--4--2-----2L------------|
----------------------------------------------------|
----------------------------------------------------|
----------------------------------------------------|
----------------------------------------------------|


----------------------------------------------------|
--2-----0-----0-----0--0--4--4--2-----2--------0L---|
----------------------------------------------------|
----------------------------------------------------|
----------------------------------------------------|
----------------------------------------------------|


----------------------------------------------------|
--0-----0-----0-----0-----4--4--2-----2L------------|
----------------------------------------------------|
----------------------------------------------------|
----------------------------------------------------|
----------------------------------------------------|


----------------------------------------------------|
--2-----0-----0-----0--0--4--4--2-----2--------0L---|
----------------------------------------------------|
----------------------------------------------------|
----------------------------------------------------|
----------------------------------------------------|


----------------------------------------------------|
--0-----0-----0-----0--0--4--4--2-----2L------------|
----------------------------------------------------|
----------------------------------------------------|
----------------------------------------------------|
----------------------------------------------------|


----------------------------------------------------|
--2-----0-----0-----0--0--4--4--2-----2--------0L---|
----------------------------------------------------|
----------------------------------------------------|
----------------------------------------------------|
----------------------------------------------------|


----------------------------------------------------|
--0-----0-----0-----0-----4--4--2-----2L------------|
----------------------------------------------------|
----------------------------------------------------|
----------------------------------------------------|
----------------------------------------------------|


----------------------------------------------------|
--2-----0-----0-----0--0--4--4--2-----2--------0L---|
----------------------------------------------------|
----------------------------------------------------|
----------------------------------------------------|
----------------------------------------------------|


----------------------------||
--0L----------0-------------||
----------------------------||
----------------------------||
----------------------------||
----------------------------||


Recommended for you:


Click to rate this post!
[Total: 0 Average: 0]

To The Top Get The Guitar Tabs

See Also