Now Reading
JASS MANAK feat VISHAL MISHRA – Hass Ke Chords and Tabs for Guitar and Piano

JASS MANAK feat VISHAL MISHRA – Hass Ke Chords and Tabs for Guitar and Piano

Enable Light Mode
#
A+
A-

This song is from the album No Competition(2020), released on 13 September 2020. The vocals are by Jass Manak . The music is produced by Vishal Mishra , and the lyrics are written by Jass Manak .
It is originally in the key of A Major. You can change it to any key you want, using the Transpose option. The average tempo is 112 BPM. These chords are simple and easy to play on the guitar or piano.
Vocals: Jass Manak ,
Producer(s): Vishal Mishra ,
Writer(s): Jass Manak ,

Click here for the chords and lyrics version

 
Original Key: A Major
Time Signature: 4/4
Tempo: 112
Suggested Strumming: DU,DU,DU,DU
c h o r d  z o n e . o r g

Legend
L - tied note
x - dead note
h - hammer on/pull off
b - bend
s - slide
~ - vibrato
g - ghost note
> - accentuated note
t - trill
M - palm mute
. - staccato
P - popping (bass)
S - slapping (bass)
+ - tapping
W - wide vibrato
< - fade in
w - whammy bar
= - tremolo picking
v - brush up
^ - brush down
V - pick stroke up
n - pick stroke down


E |-------|--0-----5-----7-----5-----0-----5-----7--5----------|
B |-------|----------------------------------------------------|
G |-------|----------------------------------------------------|
D |-------|----------------------------------------------------|
A |-------|----------------------------------------------------|
E |-------|----------------------------------------------------|


--0-----5-----7--5--------7--9-----9--7-----5-------|
----------------------------------------------------|
----------------------------------------------------|
----------------------------------------------------|
----------------------------------------------------|
----------------------------------------------------|


--0-----5-----7-----5-----0-----5-----7--5----------|--0-------------|
----------------------------------------------------|----------------|
----------------------------------------------------|----------------|
----------------------------------------------------|----------------|
----------------------------------------------------|----------------|
----------------------------------------------------|----------------|


--0--5--------7-----5-----0-----5-----7--5----------|
----------------------------------------------------|
----------------------------------------------------|
----------------------------------------------------|
----------------------------------------------------|
----------------------------------------------------|

www.chordzone.org
 

--0--5--------7--5--------7--9--9-----7-----5-------|
----------------------------------------------------|
----------------------------------------------------|
----------------------------------------------------|
----------------------------------------------------|
----------------------------------------------------|


--0-----5-----7-----5-----0-----5-----7--5----------|
----------------------------------------------------|
----------------------------------------------------|
----------------------------------------------------|
----------------------------------------------------|
----------------------------------------------------|


--0--------------------------------------0----------|
--------------------------------------2-------------|
----------------------------------------------------|
----------------------------------------------------|
----------------------------------------------------|
----------------------------------------------------|


--5--------2--------0--------------------2----------|
--------------------------3-----------3-------------|
----------------------------------------------------|
----------------------------------------------------|
----------------------------------------------------|
----------------------------------------------------|


--0--------0----------------------------------------|
--------------------3-----2-----------3-----2-------|
----------------------------------------------------|
----------------------------------------------------|
----------------------------------------------------|
----------------------------------------------------|


--------------0-------------|
--0--------0--------3-------|
----------------------------|
----------------------------|
----------------------------|
----------------------------|


-----------------------------------------0----------|
--2-----------------3--2--0-----------2-------------|
----------------------------------------------------|
----------------------------------------------------|
----------------------------------------------------|
----------------------------------------------------|


--5--------2--------0--------------------2----------|
--------------------------3-----------3-------------|
----------------------------------------------------|
----------------------------------------------------|
----------------------------------------------------|
----------------------------------------------------|


--0--------0----------------------------------------|
--------------------3-----2-----------3-----2-------|
----------------------------------------------------|
----------------------------------------------------|
----------------------------------------------------|
----------------------------------------------------|


--------------0-------------|
--0--------0--------3-------|
----------------------------|
----------------------------|
----------------------------|
----------------------------|


-----------------------------------------0----------|
--2-----------------3--2--0-----------2-------------|
----------------------------------------------------|
----------------------------------------------------|
----------------------------------------------------|
----------------------------------------------------|


--5--------2--------0--------------------2----------|
--------------------------3-----------3-------------|
----------------------------------------------------|
----------------------------------------------------|
----------------------------------------------------|
----------------------------------------------------|


--0--------0----------------------------------------|
--------------------3-----2-----------3-----2-------|
----------------------------------------------------|
----------------------------------------------------|
----------------------------------------------------|
----------------------------------------------------|


--------------0-------------|
--0--------0--------3-------|
----------------------------|
----------------------------|
----------------------------|
----------------------------|


----------------------------------------------------|
--2-----------------3--2--0-------------------------|
----------------------------------------------------|
----------------------------------------------------|
----------------------------------------------------|
----------------------------------------------------|


--------------------2-----2--2-----2--------2-------|
--3--3-----3----------------------------------------|
----------------------------------------------------|
----------------------------------------------------|
----------------------------------------------------|
----------------------------------------------------|


--0-----2--0--0--0--0-------|
-----3----------------------|
----------------------------|
----------------------------|
----------------------------|
----------------------------|


--------------------2-----2-----2--2--------2-------|
--3--3-----3----------------------------------------|
----------------------------------------------------|
----------------------------------------------------|
----------------------------------------------------|
----------------------------------------------------|


--0-----------2--------0--0-----0-----0-------------|
-----3----------------------------------------------|
----------------------------------------------------|
----------------------------------------------------|
----------------------------------------------------|
----------------------------------------------------|


----------------------------------------------------|
--3-----2-----2--------0--0-------------------------|
--------------------------------2-----1-----1-------|
----------------------------------------------------|
----------------------------------------------------|
----------------------------------------------------|


--0-------------------------------------------------|
--------3-----3--------2--2-----2-----2-------------|
----------------------------------------------------|
----------------------------------------------------|
----------------------------------------------------|
----------------------------------------------------|


----------------------------|----------------------------|----------------|
--3--2--2--0--0-------------|--2--0--2--0----------------|----------------|
-----------------2--1--1----|--------------2--2--2L------|--2-------------|
----------------------------|----------------------------|----------------|
----------------------------|----------------------------|----------------|
----------------------------|----------------------------|----------------|


-----------------------------------------0----------|
--------------------------------------2-------------|
----------------------------------------------------|
----------------------------------------------------|
----------------------------------------------------|
----------------------------------------------------|


--5--------2--------0--------------------2----------|
--------------------------3-----------3-------------|
----------------------------------------------------|
----------------------------------------------------|
----------------------------------------------------|
----------------------------------------------------|


--0--------0----------------------------------------|
--------------------3-----2-----------3-----2-------|
----------------------------------------------------|
----------------------------------------------------|
----------------------------------------------------|
----------------------------------------------------|


--------------0-------------|
--0--------0--------3-------|
----------------------------|
----------------------------|
----------------------------|
----------------------------|

www.chordzone.org
 

-----------------------------------------0----------|
--2-----------------3--2--0-----------2-------------|
----------------------------------------------------|
----------------------------------------------------|
----------------------------------------------------|
----------------------------------------------------|


--5--------2--------0--------------------2----------|
--------------------------3-----------3-------------|
----------------------------------------------------|
----------------------------------------------------|
----------------------------------------------------|
----------------------------------------------------|


--0--------0----------------------------------------|
--------------------3-----2-----------3-----2-------|
----------------------------------------------------|
----------------------------------------------------|
----------------------------------------------------|
----------------------------------------------------|


--------------0-------------|----------------||
--0--------0--------3-------|--2--0----------||
----------------------------|--------2-------||
----------------------------|----------------||
----------------------------|----------------||
----------------------------|----------------||


 

Recommended for you:


Click to rate this post!
[Total: 0 Average: 0]

To The Top Get The Guitar Tabs

See Also