Now Reading
NAMMA VEETTU PILLAI – Unkoodave Porakkanum (Sister’s Version) Guitar Tabs

NAMMA VEETTU PILLAI – Unkoodave Porakkanum (Sister’s Version) Guitar Tabs

Enable Light Mode
#
A+
A-

This song is from the movie Namma Veettu Pillai (2019), released on 06 September 2019 starring Sivakarthikeyan with Aishwarya Rajesh and Anu Emmanuel. It is sung by Shashaa Tirupati .It is originally in the key of E Major. You can change it to any key you want, using the Transpose option. The average tempo is 82 BPM. These chords are simple and easy to play on the guitar or piano.
Vocals: Shashaa Tirupati ,
Producer(s): D.Imman,
Writer(s): GKB,

Click here for the chords and lyrics version
Requested By Vignesh

 
Original Key: E Major
Time Signature: 4/4
Tempo: 82
Suggested Strumming: DU,DU,DU,DU
c h o r d  z o n e . o r g

Legend
L - tied note
x - dead note
h - hammer on/pull off
b - bend
s - slide
~ - vibrato
g - ghost note
> - accentuated note
t - trill
M - palm mute
. - staccato
P - popping (bass)
S - slapping (bass)
+ - tapping
W - wide vibrato
< - fade in
w - whammy bar
= - tremolo picking
v - brush up
^ - brush down
V - pick stroke up
n - pick stroke down


E |----------------------------------------------------|
B |--------------------------------------------2--0----|
G |----------------------------------------------------|
D |----------------------------------------------------|
A |----------------------------------------------------|
E |----------------------------------------------------|


----------------------------------------------------|
--------------------------------0--2--------2--0----|
--0-----0--2L-2-----------2--2----------------------|
----------------------------------------------------|
----------------------------------------------------|
----------------------------------------------------|


----------------------------------------------------|
--------------------------------0--2--------2--0----|
--0-----0--2L-2-----------2--2----------------------|
----------------------------------------------------|
----------------------------------------------------|
----------------------------------------------------|

www.chordzone.org
 

----------------------------------------------------|
--2-----2--3L-3-----------------0-------------------|
--------------------------2--2-----0--------0-------|
-----------------------------------------------4----|
----------------------------------------------------|
----------------------------------------------------|


----------------------------------------------------|
--------------------------------------------2--0----|
-----------2L-2L----------------------2-------------|
--2-----4-------------------------------------------|
----------------------------------------------------|
----------------------------------------------------|


----------------------------------------------------|
--------------------------------0--2--------2--0----|
--0-----0--2L-2-----------2--2----------------------|
----------------------------------------------------|
----------------------------------------------------|
----------------------------------------------------|


----------------------------------------------------|
--------------------------------0--2--------2--0----|
--0-----0--2L-2-----------2--2----------------------|
----------------------------------------------------|
----------------------------------------------------|
----------------------------------------------------|


----------------------------------------------------|
--2-----2--3L-3-----------------0-------------------|
--------------------------2--2-----0--------0-------|
-----------------------------------------------4----|
----------------------------------------------------|
----------------------------------------------------|


----------------------------------------------------|
--------------------------------------------2--3----|
-----------2L-2L----------------------2-------------|
--2-----4-------------------------------------------|
----------------------------------------------------|
----------------------------------------------------|


--0-----0L----0-------------------------------------|
--------------------3--2--0-----2L----2-----0-------|
-----------------------------------------------2----|
----------------------------------------------------|
----------------------------------------------------|
----------------------------------------------------|


----------------------------------------------------|
--------------0--2--2-----------------------2--3----|
--2-----2-----------------2-------------------------|
----------------------------------------------------|
----------------------------------------------------|
----------------------------------------------------|


--0-----0L----0-------------------------------------|
--------------------3--2--0-----2L----2-----0-------|
-----------------------------------------------2----|
----------------------------------------------------|
----------------------------------------------------|
----------------------------------------------------|


----------------------------------------------------|
--------------0--2--2-------------------------------|
--2-----2-----------------0-------------------------|
--------------------------------------------4--5----|
----------------------------------------------------|
----------------------------------------------------|


----------------------------------------------------|
--------------------------------2L----2-------------|
-----------0--2-----2-----2--------------------0----|
--2-----4-----------------------------------4-------|
----------------------------------------------------|
----------------------------------------------------|


----------------------------------------------------|
----------------------------------------------------|
-----------0--2-----2-----0--------------------0----|
--2-----4-----------------------------------4-------|
----------------------------------------------------|
----------------------------------------------------|


----------------------------------------------------|
--------------------------------2L----2-----2--2----|
-----------0--2-----2-----2-------------------------|
--2-----4-------------------------------------------|
----------------------------------------------------|
----------------------------------------------------|


--------------------------------------------0--3----|
--3--3--3--2--0-----------0--------2-----3----------|
--------------------2-------------------------------|
----------------------------------------------------|
----------------------------------------------------|
----------------------------------------------------|


--1-----0L----0-----0--3--1-----0L----0-----0--0----|
----------------------------------------------------|
----------------------------------------------------|
----------------------------------------------------|
----------------------------------------------------|
----------------------------------------------------|


-----0--0-----------------------------------0--3----|
--3--------3--1-----0-----0--------2-----3----------|
-----------------------2----------------------------|
----------------------------------------------------|
----------------------------------------------------|
----------------------------------------------------|


--1-----0L----0-----0--5--1-----0L----0-------------|
--------------------------------------------2-------|
----------------------------------------------------|
----------------------------------------------------|
----------------------------------------------------|
----------------------------------------------------|


----------------------------------------------------|
--0--2--2-----2-----2-----------------------2--0----|
--------------------------0-------------------------|
----------------------------------------------------|
----------------------------------------------------|
----------------------------------------------------|


----------------------------------------------------|
--------------------------------0--2--------2--0----|
--0-----0--2L-2-----------2--2----------------------|
----------------------------------------------------|
----------------------------------------------------|
----------------------------------------------------|


----------------------------------------------------|
--------------------------------0--2--------2--0----|
--0-----0--2L-2-----------2--2----------------------|
----------------------------------------------------|
----------------------------------------------------|
----------------------------------------------------|


----------------------------------------------------|
--2-----2--3L-3-----------------0-------------------|
--------------------------2--2-----0--------0-------|
-----------------------------------------------4----|
----------------------------------------------------|
----------------------------------------------------|


----------------------------------------------------|
--------------------------------------------2--0----|
-----------2L-2L----------------------2-------------|
--2-----4-------------------------------------------|
----------------------------------------------------|
----------------------------------------------------|


----------------------------------------------------|
--------------------------------0--2--------2--0----|
--0-----0--2L-2-----------2--2----------------------|
----------------------------------------------------|
----------------------------------------------------|
----------------------------------------------------|


----------------------------------------------------|
--------------------------------0--2--------2--0----|
--0-----0--2L-2-----------2--2----------------------|
----------------------------------------------------|
----------------------------------------------------|
----------------------------------------------------|


----------------------------------------------------|
--2-----2--3L-3-----------------0-------------------|
--------------------------2--2-----0--------0-------|
-----------------------------------------------4----|
----------------------------------------------------|
----------------------------------------------------|


----------------------------------------------------|
--------------------------------------------2--0----|
-----------2L-2L----------------------2-------------|
--2-----4-------------------------------------------|
----------------------------------------------------|
----------------------------------------------------|


----------------------------------------------------|
--------------------------------0--2--------2--0----|
--0-----0--2L-2-----------2--2----------------------|
----------------------------------------------------|
----------------------------------------------------|
----------------------------------------------------|


----------------------------------------------------|
--------------------------------0--2--------2--0----|
--0-----0--2L-2-----------2--2----------------------|
----------------------------------------------------|
----------------------------------------------------|
----------------------------------------------------|


----------------------------------------------------|
--2-----2--3L-3-----------------0-------------------|
--------------------------2--2-----0--------0-------|
-----------------------------------------------4----|
----------------------------------------------------|
----------------------------------------------------|


----------------------------------------------------|
--------------------------------------------2--0----|
-----------2L-2L----------------------2-------------|
--2-----4-------------------------------------------|
----------------------------------------------------|
----------------------------------------------------|


----------------------------------------------------|
--------------------------------0--2--------2--0----|
--0-----0--2L-2-----------2--2----------------------|
----------------------------------------------------|
----------------------------------------------------|
----------------------------------------------------|


----------------------------------------------------|
--------------------------------0--2--------2--0----|
--0-----0--2L-2-----------2--2----------------------|
----------------------------------------------------|
----------------------------------------------------|
----------------------------------------------------|

www.chordzone.org
 

----------------------------------------------------|
--2-----2--3L-3-----------------0-------------------|
--------------------------2--2-----0--------0-------|
-----------------------------------------------4----|
----------------------------------------------------|
----------------------------------------------------|


----------------------------------------------------|
----------------------------------------------------|
-----------2L-2L------------------------------------|
--2-----4-------------------------------------------|
----------------------------------------------------|
----------------------------------------------------|


----------------------------------------------------||
----------------------------------------------------||
--2L----------2-------------------------------------||
----------------------------------------------------||
----------------------------------------------------||
----------------------------------------------------||


Recommended for you:


Click to rate this post!
[Total: 0 Average: 0]

To The Top Get The Guitar Tabs

See Also