AURORA – Runaway Guitar Tabs

Enable Light Mode
#
A+
A-

This song is from the album Running with the Wolves(2015), released on 07 February 2015. The vocals are by AURORA, the music is produced by AURORA , Magnus Skylstad, and the lyrics are written by Odd Martin , Magnus Skylstad.
This song is originally in the key of G# Minor. You can change it to any key you want, using the Transpose option. The average tempo is 172 BPM. These chords are simple and easy to play on the guitar, ukulele or piano.

Click here for the chords and lyrics version

 
Original Key: G# Minor
Time Signature: 6/8
Tempo: 172
Suggested Strumming: D,D,D,D,D,D
c h o r d  z o n e . o r g
 
 Legend
L - tied note
x - dead note
h - hammer on/pull off
b - bend
s - slide
~ - vibrato
g - ghost note
> - accentuated note
t - trill
M - palm mute
. - staccato
P - popping (bass)
S - slapping (bass)
+ - tapping
W - wide vibrato
< - fade in
w - whammy bar
= - tremolo picking
v - brush up
^ - brush down
V - pick stroke up
n - pick stroke down


E |-------|-------|--4L---|--4----|--3----------|--3--4--3-------------|--1----|
B |-------|-------|-------|-------|-------------|--------------4-------|-------|
G |-------|-------|-------|-------|-------------|----------------------|-------|
D |-------|-------|-------|-------|-------------|----------------------|-------|
A |-------|-------|-------|-------|-------------|----------------------|-------|
E |-------|-------|-------|-------|-------------|----------------------|-------|


--4----|--3----------|--3--4--3-------------|--4L---|--4----|--3----------|
-------|-------------|--------------4-------|-------|-------|-------------|
-------|-------------|----------------------|-------|-------|-------------|
-------|-------------|----------------------|-------|-------|-------------|
-------|-------------|----------------------|-------|-------|-------------|
-------|-------------|----------------------|-------|-------|-------------|


--3--4--3-------------|--1----|--4----|--3----------|--3--4--3-------------|
--------------4-------|-------|-------|-------------|--------------4-------|
----------------------|-------|-------|-------------|----------------------|
----------------------|-------|-------|-------------|----------------------|
----------------------|-------|-------|-------------|----------------------|
----------------------|-------|-------|-------------|----------------------|

www.chordzone.org
 

--1-----4-----6--6L---|--6-----8-----6--6----|--6-----3----|-------|
----------------------|----------------------|-------------|-------|
----------------------|----------------------|-------------|-------|
----------------------|----------------------|-------------|-------|
----------------------|----------------------|-------------|-------|
----------------------|----------------------|-------------|-------|


--1--------6L-6-------|--8--6-------|--6--------8L-8-------|
----------------------|-------------|----------------------|
----------------------|-------------|----------------------|
----------------------|-------------|----------------------|
----------------------|-------------|----------------------|
----------------------|-------------|----------------------|


-----------4--3-------|--1--4--8L---|--8--8--11---|--11-9--8----|--6--4--3----|
----------------------|-------------|-------------|-------------|-------------|
----------------------|-------------|-------------|-------------|-------------|
----------------------|-------------|-------------|-------------|-------------|
----------------------|-------------|-------------|-------------|-------------|
----------------------|-------------|-------------|-------------|-------------|


--1----------|--3-----4--3--1--3----|--4----|-------|--1--------4L-4--6----|
-------------|----------------------|-------|-------|----------------------|
-------------|----------------------|-------|-------|----------------------|
-------------|----------------------|-------|-------|----------------------|
-------------|----------------------|-------|-------|----------------------|
-------------|----------------------|-------|-------|----------------------|


--8--6--6----|--6--3L-3L------------|--3----------|--1-----4-----6--8----|
-------------|----------------------|-------------|----------------------|
-------------|----------------------|-------------|----------------------|
-------------|----------------------|-------------|----------------------|
-------------|----------------------|-------------|----------------------|
-------------|----------------------|-------------|----------------------|


-----6--6L---|--6----|-----8--4----|--1-----4-----8--11---|-------|
-------------|-------|-------------|----------------------|-------|
-------------|-------|-------------|----------------------|-------|
-------------|-------|-------------|----------------------|-------|
-------------|-------|-------------|----------------------|-------|
-------------|-------|-------------|----------------------|-------|


--11----16----11----9-----8-------------|--6--4--3----|--1----|
----------------------------------------|-------------|-------|
----------------------------------------|-------------|-------|
----------------------------------------|-------------|-------|
----------------------------------------|-------------|-------|
----------------------------------------|-------------|-------|


--3-----4--3--1--3----|--4----|--------4----|--4-----8--6-----4----|
----------------------|-------|-------------|----------------------|
----------------------|-------|-------------|----------------------|
----------------------|-------|-------------|----------------------|
----------------------|-------|-------------|----------------------|
----------------------|-------|-------------|----------------------|


--4-----3--1L-1--3----|--4-----8--6-----8----|--11----8--11-8-------|
----------------------|----------------------|----------------------|
----------------------|----------------------|----------------------|
----------------------|----------------------|----------------------|
----------------------|----------------------|----------------------|
----------------------|----------------------|----------------------|


--8-----8--8-----11---|-----------------8----|--8--------11----13---|
----------------------|--11------------------|--------11------------|
----------------------|----------------------|----------------------|
----------------------|----------------------|----------------------|
----------------------|----------------------|----------------------|
----------------------|----------------------|----------------------|


----------------------------------------|--4-----8--6-----4----|
--13----------11----9L----9-------------|----------------------|
----------------------------------------|----------------------|
----------------------------------------|----------------------|
----------------------------------------|----------------------|
----------------------------------------|----------------------|


--4-----8--6-----4----|--4-----8--6-----8----|--11-------8--8-------|
----------------------|----------------------|----------------------|
----------------------|----------------------|----------------------|
----------------------|----------------------|----------------------|
----------------------|----------------------|----------------------|
----------------------|----------------------|----------------------|

www.chordzone.org
 

-----------16L16------|----------------------|-----11-8----|--11----9----|
----------------------|--16----14-13L13L-----|--13---------|-------------|
----------------------|----------------------|-------------|-------------|
----------------------|----------------------|-------------|-------------|
----------------------|----------------------|-------------|-------------|
----------------------|----------------------|-------------|-------------|


--8----|--6--------8L-8-------|-----13------|--13----8--6--8L------|
-------|----------------------|--------13---|----------------------|
-------|----------------------|-------------|----------------------|
-------|----------------------|-------------|----------------------|
-------|----------------------|-------------|----------------------|
-------|----------------------|-------------|----------------------|


--8--------9--------8--9--------8L------|--8L---|
----------------------------------------|-------|
----------------------------------------|-------|
----------------------------------------|-------|
----------------------------------------|-------|
----------------------------------------|-------|


--8L----------------------8-------------||
----------------------------------------||
----------------------------------------||
----------------------------------------||
----------------------------------------||
----------------------------------------||


Recommended for you:


Click to rate this post!
[Total: 0 Average: 0]

To The Top Get The Guitar Tabs

See Also