Now Reading
H.E.R. – Hold Us Together Tabs for Guitar

H.E.R. – Hold Us Together Tabs for Guitar

Enable Light Mode
#
A+
A-

This single was released on 11 December 2020. The vocals are by H.E.R., the music is produced by Josiah Bassey, and the lyrics are written by D’Mile.
This song is originally in the key of Bb Major. You can change it to any key you want, using the Transpose option. The average tempo is 85 BPM. These chords are simple and easy to play on the guitar, ukulele or piano.
Vocals: H.E.R. ,
Producer: D’Mile,
Writer: Josiah Bassey,

Click here for the chords and lyrics version

 
Original Key: Bb Major
Time Signature: 4/4
Tempo: 85
Suggested Strumming: DU,DU,DU,DU
c h o r d  z o n e . o r g
 [INTRO]
Legend
L - tied note
x - dead note
h - hammer on/pull off
b - bend
s - slide
~ - vibrato
g - ghost note
> - accentuated note
t - trill
M - palm mute
. - staccato
P - popping (bass)
S - slapping (bass)
+ - tapping
W - wide vibrato
< - fade in
w - whammy bar
= - tremolo picking
v - brush up
^ - brush down
V - pick stroke up
n - pick stroke down


E |----------------------------------------------------|
B |-----------------------------------------------1----|
G |--------------------------------------------3-------|
D |----------------------------------------------------|
A |----------------------------------------------------|
E |----------------------------------------------------|


----------------------------|
--3-----1-------------------|
--------------3--------3----|
----------------------------|
----------------------------|
----------------------------|


----------------------------------------------------|
--4-----------4--3--3L----3-------------------------|
--------------------------------3L----3-----3L------|
----------------------------------------------------|
----------------------------------------------------|
----------------------------------------------------|


----------------------------|
----------------------------|
--3--2L-2--------3L-3--3L---|
----------------------------|
----------------------------|
----------------------------|


www.chordzone.org
 
----------------------------------------------------|
-----------------------------------------------1----|
--3-----2L----2L----------------2-----------3-------|
----------------------------------------------------|
----------------------------------------------------|
----------------------------------------------------|


----------------------------|
--3-----1-------------------|
--------------3--------3----|
----------------------------|
----------------------------|
----------------------------|


----------------------------------------------------|
--4-----------4--3--3L----3-------------------------|
--------------------------------3L----3-----3L------|
----------------------------------------------------|
----------------------------------------------------|
----------------------------------------------------|


----------------------------|
----------------------------|
--3--2L-2--------3L-3--3L---|
----------------------------|
----------------------------|
----------------------------|


----------------------------------------------------|
--------------------1-----1--3-----3L-3--1----------|
--3-----2L----2--------------------------------3L---|
----------------------------------------------------|
----------------------------------------------------|
----------------------------------------------------|


----------------------------------------------------|
--------------------------1--3-----3L-3--1----------|
--3-----------0--------------------------------3L---|
----------------------------------------------------|
----------------------------------------------------|
----------------------------------------------------|


----------------------------------------------------|
--------------------------1--3-----3L-3--1----------|
--3--------------------------------------------3L---|
----------------------------------------------------|
----------------------------------------------------|
----------------------------------------------------|


----------------------------------------------------|
--------------------------1--3-----3L-3--4-----3----|
--3-----------0-------------------------------------|
----------------------------------------------------|
----------------------------------------------------|
----------------------------------------------------|


----------------------------------------------------|
--1-----------------------1--3-----3L-3--1----------|
-----------------------------------------------3L---|
----------------------------------------------------|
----------------------------------------------------|
----------------------------------------------------|


-----------------------------------1L-1-------------|
--------------------------1--3-----------1----------|
--3-----------0--------------------------------3L---|
----------------------------------------------------|
----------------------------------------------------|
----------------------------------------------------|


----------------------------------------------------|
--------------------------3--4-----4-----3-----3L---|
--3-------------------------------------------------|
----------------------------------------------------|
----------------------------------------------------|
----------------------------------------------------|


----------------------------------------------------|----------|
--3-----------------------1--3-----3L-3--4--3--1L---|--1-------|
--------------3-------------------------------------|----------|
----------------------------------------------------|----------|
----------------------------------------------------|----------|
----------------------------------------------------|----------|


----------------------------------------------------|----------------|
--------------3--------3--3-------------------------|-----3--3-------|
--------------------------------------3-------------|-----------3----|
----------------------------------------------------|----------------|
----------------------------------------------------|----------------|
----------------------------------------------------|----------------|


----------------------------------------------------|
--------------3-----------3-------------------------|
-----------3--------------------------3-------------|
----------------------------------------------------|
----------------------------------------------------|
----------------------------------------------------|


----------------------------------------------------|
--1-----------1-----------3-----------1-------------|
-----------------------3----------------------------|
----------------------------------------------------|
----------------------------------------------------|
----------------------------------------------------|

www.chordzone.org
 

----------------------------------------------------|----------------|
-----------------3--------3-------------------------|-----4--4--3----|
--------------3-----------------------3-------------|----------------|
----------------------------------------------------|----------------|
----------------------------------------------------|----------------|
----------------------------------------------------|----------------|


----------------------------------------------------|
--------------3-----------3-------------------------|
-----------3--------------------------3-------------|
----------------------------------------------------|
----------------------------------------------------|
----------------------------------------------------|


----------------------------------------------------|----------------||
--1-----------1-----------3-----------1-------------|----------------||
-----------------------3----------------------------|--3-------------||
----------------------------------------------------|----------------||
----------------------------------------------------|----------------||
----------------------------------------------------|----------------||


Recommended for you:


Click to rate this post!
[Total: 0 Average: 0]

To The Top Get The Guitar Tabs

See Also