KHAMOSHIYAN – Baatein Ye Kabhi Na Guitar Tabs

Enable Light Mode
#
A+
A-

This song is from the movie Khamoshiyan(2014), released on 29 December 2014 starring Ali Fazal, Sapna Pabbi and Gurmeet Choudhary. The vocals are by Arijit Singh, the music is produced by Sayeed Quadri, and the lyrics are written by Jeet Gannguli
This song is originally in the key of C# Minor. You can change it to any key you want, using the Transpose option. The average tempo is 90 BPM. These chords are simple and easy to play on the guitar, ukulele or piano.
Vocals: Arijit Singh,
Producer: Jeet Gannguli,
Writer: Sayeed Quadri,

Click here for the chords and lyrics versionRequested By MJain

 
Original Key: C# Minor
Time Signature: 4/4
Tempo: 90
Suggested Strumming: DU,DU,DU,DU
c h o r d  z o n e . o r g

Legend
L - tied note
x - dead note
h - hammer on/pull off
b - bend
s - slide
~ - vibrato
g - ghost note
> - accentuated note
t - trill
M - palm mute
. - staccato
P - popping (bass)
S - slapping (bass)
+ - tapping
W - wide vibrato
< - fade in
w - whammy bar
= - tremolo picking
v - brush up
^ - brush down
V - pick stroke up
n - pick stroke down


E |-------|-----1--0-------------------|
B |-------|-----------1--1--3L-3-------|
G |-------|--2-------------------------|
D |-------|----------------------------|
A |-------|----------------------------|
E |-------|----------------------------|


----------------------------------------------------|
--------------1-------------------------------------|
--------2--------------3--2-----0L----0-------------|
----------------------------------------------------|
----------------------------------------------------|
----------------------------------------------------|


----------------------------|
-----------------1L-1L------|
--0--0--2--3--0-------------|
----------------------------|
----------------------------|
----------------------------|


----------------------------------------------------|
--1--------1----------------------------------------|
--------3-----3-----2-----2-------------------------|
----------------------------------------------------|
----------------------------------------------------|
----------------------------------------------------|


-----1--0-------------------|
-----------1--1--3L-3-------|
--2-------------------------|
----------------------------|
----------------------------|
----------------------------|


----------------------------------------------------|
--------------1-------------------------------------|
--------2--------------3--2-----0L----0-------------|
----------------------------------------------------|
----------------------------------------------------|
----------------------------------------------------|


----------------------------|
-----------------1L-1L------|
--0--0--2--3--0-------------|
----------------------------|
----------------------------|
----------------------------|


----------------------------------------------------|
--1--------1----------------------------------------|
--------3-----3-----2-----2-------------------------|
----------------------------------------------------|
----------------------------------------------------|
----------------------------------------------------|


--------------0-----0L------|
--------2--3----------------|
-----2----------------------|
----------------------------|
----------------------------|
----------------------------|


--0-----0--0-----1-----0--0-----------0-------------|
--------------------------------3--------3--2L------|
----------------------------------------------------|
----------------------------------------------------|
----------------------------------------------------|
----------------------------------------------------|


--------------0-----0L------|
--2-----2--3----------------|
-----2----------------------|
----------------------------|
----------------------------|
----------------------------|


www.chordzone.org
 
--0-----0--0-----1-----0--0-------------------------|
--------------------------------3L----3-------------|
----------------------------------------------------|
----------------------------------------------------|
----------------------------------------------------|
----------------------------------------------------|


--------0--1--3--0----------|
-----3--------------3--1L---|
----------------------------|
----------------------------|
----------------------------|
----------------------------|


----------------------------------------------------|
--1--------------1----------------------------------|
--------3--3-----------3--2-------------------------|
----------------------------------------------------|
----------------------------------------------------|
----------------------------------------------------|


-----1--0-------------------|
-----------1--1--3L-3-------|
--2-------------------------|
----------------------------|
----------------------------|
----------------------------|


----------------------------------------------------|
--------------1-------------------------------------|
--------2--------------3--2-----0L----0-------------|
----------------------------------------------------|
----------------------------------------------------|
----------------------------------------------------|


----------------------------|
-----------------1L-1L------|
--0--0--2--3--0-------------|
----------------------------|
----------------------------|
----------------------------|


----------------------------------------------------|
--1--------1----------------------------------------|
--------3-----3-----2-----2-------------------------|
----------------------------------------------------|
----------------------------------------------------|
----------------------------------------------------|


-----1--0-------------------|
-----------1--1--3L-3-------|
--2-------------------------|
----------------------------|
----------------------------|
----------------------------|


----------------------------------------------------|
--------------1-------------------------------------|
--------2--------------3--2-----0L----0-------------|
----------------------------------------------------|
----------------------------------------------------|
----------------------------------------------------|


----------------------------|
-----------------1L-1L------|
--0--0--2--3--0-------------|
----------------------------|
----------------------------|
----------------------------|


----------------------------------------------------|-------|
--1--------1----------------------------------------|-------|
--------3-----3-----2-----2-------------------------|-------|
----------------------------------------------------|-------|
----------------------------------------------------|-------|
----------------------------------------------------|-------|


----------------------------|----------------------------|
-----------3--1-------------|-----------3--1-------------|
-----2--3-------------------|-----2--3-------------------|
----------------------------|----------------------------|
----------------------------|----------------------------|
----------------------------|----------------------------|


-----------0----------------|----------------------------|
-----1--3-----3-----3L------|--3-----1-------------------|
----------------------------|-----3-----3--2-------------|
----------------------------|----------------------------|
----------------------------|----------------------------|
----------------------------|----------------------------|


----------------------------------------------------|
--------------------3-----1-------------------------|
--------2-----3-----------------------2--0----------|
--------------------------------------------3-------|
----------------------------------------------------|
----------------------------------------------------|


----------------------------|-----------0----------------|
-----------3--1-------------|-----1--3-----3-----3L------|
-----2--3-------------------|----------------------------|
----------------------------|----------------------------|
----------------------------|----------------------------|
----------------------------|----------------------------|


----------------------------|--------------0-----0L------|
--3-----1-------------------|--------2--3----------------|
-----3-----3--2-------------|-----2----------------------|
----------------------------|----------------------------|
----------------------------|----------------------------|
----------------------------|----------------------------|


--0-----0--0-----1-----0--0-----------0-------------|
--------------------------------3--------3--2L------|
----------------------------------------------------|
----------------------------------------------------|
----------------------------------------------------|
----------------------------------------------------|


--------------0-----0L------|
--2-----2--3----------------|
-----2----------------------|
----------------------------|
----------------------------|
----------------------------|


--0-----0--0-----1-----0--0-------------------------|
--------------------------------3L----3-------------|
----------------------------------------------------|
----------------------------------------------------|
----------------------------------------------------|
----------------------------------------------------|


--------0--1--3--0----------|
-----3--------------3--1L---|
----------------------------|
----------------------------|
----------------------------|
----------------------------|


----------------------------------------------------|
--1--------------1----------------------------------|
--------3--3-----------3--2-------------------------|
----------------------------------------------------|
----------------------------------------------------|
----------------------------------------------------|


-----1--0-------------------|
-----------1--1--3L-3-------|
--2-------------------------|
----------------------------|
----------------------------|
----------------------------|


----------------------------------------------------|
--------------1-------------------------------------|
--------2--------------3--2-----0L----0-------------|
----------------------------------------------------|
----------------------------------------------------|
----------------------------------------------------|


----------------------------|
-----------------1L-1L------|
--0--0--2--3--0-------------|
----------------------------|
----------------------------|
----------------------------|


----------------------------------------------------|
--1--------1----------------------------------------|
--------3-----3-----2-----2-------------------------|
----------------------------------------------------|
----------------------------------------------------|
----------------------------------------------------|


-----1--0-------------------|
-----------1--1--3L-3-------|
--2-------------------------|
----------------------------|
----------------------------|
----------------------------|

www.chordzone.org
 

----------------------------------------------------|
--------------1-------------------------------------|
--------2--------------3--2-----0L----0-------------|
----------------------------------------------------|
----------------------------------------------------|
----------------------------------------------------|


----------------------------|
-----------------1L-1L------|
--0--0--2--3--0-------------|
----------------------------|
----------------------------|
----------------------------|


----------------------------------------------------|
--1--------1----------------------------------------|
--------3-----3-----2-----2L------------------------|
----------------------------------------------------|
----------------------------------------------------|
----------------------------------------------------|


----------------------------||
----------------------------||
--2L----------2-------------||
----------------------------||
----------------------------||
----------------------------||


  

Recommended for you:


Click to rate this post!
[Total: 0 Average: 0]

To The Top Get The Guitar Tabs

See Also