Now Reading
RASCAL FLATTS – Life Is A Highway Guitar Tabs

RASCAL FLATTS – Life Is A Highway Guitar Tabs

Enable Light Mode
#
A+
A-

This song is from the album Cars(2006), released on 06 June 2006. The vocals are by Rascal Flatts, the music is produced by Tom Cochrane, and the lyrics are written by Dann Huff.
This song is originally in the key of F Major. You can change it to any key you want, using the Transpose option. The average tempo is 105 BPM. These chords are simple and easy to play on the guitar, ukulele or piano.
Vocals: Rascal Flatts ,
Producer: Dann Huff,
Writer: Tom Cochrane,

Click here for the chords and lyrics version
Requested By Matei Ruben

 
Original Key: F Major
Time Signature: 4/4
Tempo: 105
Suggested Strumming: DU,DU,DU,DU
c h o r d  z o n e . o r g


Legend
L - tied note
x - dead note
h - hammer on/pull off
b - bend
s - slide
~ - vibrato
g - ghost note
> - accentuated note
t - trill
M - palm mute
. - staccato
P - popping (bass)
S - slapping (bass)
+ - tapping
W - wide vibrato
< - fade in
w - whammy bar
= - tremolo picking
v - brush up
^ - brush down
V - pick stroke up
n - pick stroke down


E |-----------------------3----|
B |----------------------------|
G |----------------------------|
D |----------------------------|
A |----------------------------|
E |----------------------------|


--5-----3--1--------1-----1-----1--5--------3-------|
----------------------------------------------------|
----------------------------------------------------|
----------------------------------------------------|
----------------------------------------------------|
----------------------------------------------------|


--5-----3--1--------1-----1-----1-----------3-------|
--------------------------------------1-------------|
----------------------------------------------------|
----------------------------------------------------|
----------------------------------------------------|
----------------------------------------------------|


--3-----3--3--------3-----3-----3--5--------3-------|
----------------------------------------------------|
----------------------------------------------------|
----------------------------------------------------|
----------------------------------------------------|
----------------------------------------------------|


--5-----3--1--------1-----1-----1-----------3-------|
--------------------------------------1-------------|
----------------------------------------------------|
----------------------------------------------------|
----------------------------------------------------|
----------------------------------------------------|


--5-----3--1--------1-----1-----1--5--------3-------|
----------------------------------------------------|
----------------------------------------------------|
----------------------------------------------------|
----------------------------------------------------|
----------------------------------------------------|

www.chordzone.org
 

--5-----3--1--------1-----1-----1-----------3-------|
--------------------------------------1-------------|
----------------------------------------------------|
----------------------------------------------------|
----------------------------------------------------|
----------------------------------------------------|


--3-----3--3--------3-----3-----3--5--------3-------|
----------------------------------------------------|
----------------------------------------------------|
----------------------------------------------------|
----------------------------------------------------|
----------------------------------------------------|


--5-----3--1--------1-----1-----1-------------------|
--------------------------------------1-------------|
----------------------------------------------------|
----------------------------------------------------|
----------------------------------------------------|
----------------------------------------------------|


--------5-----5-----5L----5--------3--3-------------|
----------------------------------------------------|
----------------------------------------------------|
----------------------------------------------------|
----------------------------------------------------|
----------------------------------------------------|


--------5--5-----5-----5--------3-----3-------------|
----------------------------------------------------|
----------------------------------------------------|
----------------------------------------------------|
----------------------------------------------------|
----------------------------------------------------|


--------5-----5-----5-----5-----3-----1--------3L---|
----------------------------------------------------|
----------------------------------------------------|
----------------------------------------------------|
----------------------------------------------------|
----------------------------------------------------|


--3--------5--3--1L-1-------|--17-17-17-17-15-13L13------|
----------------------------|----------------------------|
----------------------------|----------------------------|
----------------------------|----------------------------|
----------------------------|----------------------------|
----------------------------|----------------------------|


--------17-17----17-------17----15----13------------|
--------------------------------------------10L-----|
----------------------------------------------------|
----------------------------------------------------|
----------------------------------------------------|
----------------------------------------------------|

www.chordzone.org
 

-----6L-6--8L-8--10---------|-------|--17-17-17-17-15-13L13------|
--10------------------------|-------|----------------------------|
----------------------------|-------|----------------------------|
----------------------------|-------|----------------------------|
----------------------------|-------|----------------------------|
----------------------------|-------|----------------------------|


--------17-17----17-------17----15----13------------|
--------------------------------------------10L-----|
----------------------------------------------------|
----------------------------------------------------|
----------------------------------------------------|
----------------------------------------------------|


-----6L-6--8L-8--10---------|-----------------------3----|
--10------------------------|----------------------------|
----------------------------|----------------------------|
----------------------------|----------------------------|
----------------------------|----------------------------|
----------------------------|----------------------------|


--5-----3--1--------1-----1-----1--5--------3-------|
----------------------------------------------------|
----------------------------------------------------|
----------------------------------------------------|
----------------------------------------------------|
----------------------------------------------------|


--5-----3--1--------1-----1-----1-----------3-------|
--------------------------------------1-------------|
----------------------------------------------------|
----------------------------------------------------|
----------------------------------------------------|
----------------------------------------------------|


--3-----3--3--------3-----3-----3--5--------3-------|
----------------------------------------------------|
----------------------------------------------------|
----------------------------------------------------|
----------------------------------------------------|
----------------------------------------------------|


--5-----3--1--------1-----1-----1-----------3-------|
--------------------------------------1-------------|
----------------------------------------------------|
----------------------------------------------------|
----------------------------------------------------|
----------------------------------------------------|


--5-----3--1--------1-----1-----1--5--------3-------|
----------------------------------------------------|
----------------------------------------------------|
----------------------------------------------------|
----------------------------------------------------|
----------------------------------------------------|


--5-----3--1--------1-----1-----1-----------3-------|
--------------------------------------1-------------|
----------------------------------------------------|
----------------------------------------------------|
----------------------------------------------------|
----------------------------------------------------|


--3-----3--3--------3-----3-----3--5--------3-------|
----------------------------------------------------|
----------------------------------------------------|
----------------------------------------------------|
----------------------------------------------------|
----------------------------------------------------|


--5-----3--1--------1-----1-----1-------------------|
--------------------------------------1-------------|
----------------------------------------------------|
----------------------------------------------------|
----------------------------------------------------|
----------------------------------------------------|


--------5-----5-----5--5--------3-----1--3----------|
----------------------------------------------------|
----------------------------------------------------|
----------------------------------------------------|
----------------------------------------------------|
----------------------------------------------------|


--5-----5-----5-----5--5--------3-----1--3----------|
----------------------------------------------------|
----------------------------------------------------|
----------------------------------------------------|
----------------------------------------------------|
----------------------------------------------------|


--5-----3--3-----3--1--3--5-----3--3L-3-------------|
----------------------------------------------------|
----------------------------------------------------|
----------------------------------------------------|
----------------------------------------------------|
----------------------------------------------------|


--5-----3--3-----3--1--3--5-----5L----5-------------|
----------------------------------------------------|
----------------------------------------------------|
----------------------------------------------------|
----------------------------------------------------|
----------------------------------------------------|


--17-17-17-17-15-13L13------|
----------------------------|
----------------------------|
----------------------------|
----------------------------|
----------------------------|


--------17-17----17-------17----15----13------------|
--------------------------------------------10L-----|
----------------------------------------------------|
----------------------------------------------------|
----------------------------------------------------|
----------------------------------------------------|


-----6L-6--8L-8--10---------|-------|--17-17-17-17-15-13L13------|
--10------------------------|-------|----------------------------|
----------------------------|-------|----------------------------|
----------------------------|-------|----------------------------|
----------------------------|-------|----------------------------|
----------------------------|-------|----------------------------|


--------17-17----17-------17----15----13------------|
--------------------------------------------10L-----|
----------------------------------------------------|
----------------------------------------------------|
----------------------------------------------------|
----------------------------------------------------|


-----6L-6--8L-8--10---------|-------|--17-17-17-17-15-13L13------|
--10------------------------|-------|----------------------------|
----------------------------|-------|----------------------------|
----------------------------|-------|----------------------------|
----------------------------|-------|----------------------------|
----------------------------|-------|----------------------------|


--------17-17----17-------17----15----13------------|
--------------------------------------------10L-----|
----------------------------------------------------|
----------------------------------------------------|
----------------------------------------------------|
----------------------------------------------------|


-----6L-6--8L-8--10---------|-------|--17-17-17-17-15-13L13------|
--10------------------------|-------|----------------------------|
----------------------------|-------|----------------------------|
----------------------------|-------|----------------------------|
----------------------------|-------|----------------------------|
----------------------------|-------|----------------------------|


--------17-17----17-------20----15----13----5L------|
----------------------------------------------------|
----------------------------------------------------|
----------------------------------------------------|
----------------------------------------------------|
----------------------------------------------------|


--5--6L-6--8L-8--10L10L-----|--10---|-------||
----------------------------|-------|-------||
----------------------------|-------|-------||
----------------------------|-------|-------||
----------------------------|-------|-------||
----------------------------|-------|-------||


Recommended for you:


Click to rate this post!
[Total: 0 Average: 0]

To The Top Get The Guitar Tabs

See Also