THE MIDNIGHT - Sunset Chords and Lyrics

THE MIDNIGHT – Sunset Guitar Tabs

Enable Light Mode
#
A+
A-

This song is from the album Black Sails In the Sunset(1999), released on 18 May 1999. The vocals are by The Midnight, the music is produced by Tyler Lyle , Tim McEwan, and the lyrics are written by Tim McEwan.
This song is originally in the key of F Major. You can change it to any key you want, using the Transpose option. The average tempo is 115 BPM. These chords are simple and easy to play on the guitar, ukulele or piano.
Vocals: The Midnight ,
Producer: Tim McEwan,
Writer: Tyler Lyle , Tim McEwan,

Click here for the chords and lyrics version
Requested By Albert Okram

 
Original Key: F Major
Time Signature: 4/4
Tempo: 115
Suggested Strumming: DU,DU,DU,DU
c h o r d  z o n e . o r g
 
Legend
L - tied note
x - dead note
h - hammer on/pull off
b - bend
s - slide
~ - vibrato
g - ghost note
> - accentuated note
t - trill
M - palm mute
. - staccato
P - popping (bass)
S - slapping (bass)
+ - tapping
W - wide vibrato
< - fade in
w - whammy bar
= - tremolo picking
v - brush up
^ - brush down
V - pick stroke up
n - pick stroke down


E |-------|-------|--------------------8-------|----------------------------|
B |-------|-------|--10-------------------8L---|--8--------6L-6-----8-------|
G |-------|-------|----------------------------|----------------------------|
D |-------|-------|----------------------------|----------------------------|
A |-------|-------|----------------------------|----------------------------|
E |-------|-------|----------------------------|----------------------------|


--1-----0-------------------|----------------------------|
-----------3--1-------------|----------------------------|
----------------------------|--2--------0L-0-------------|
----------------------------|----------------------------|
----------------------------|----------------------------|
----------------------------|----------------------------|


----------------------------|-----------0L-0-------------|
--10----------------13-8L---|--8-------------------------|
----------------------------|----------------------------|
----------------------------|----------------------------|
----------------------------|----------------------------|
----------------------------|----------------------------|


--0--1--0-------------------------------------------|
-----------3--1-----------------------------3-------|
----------------------------------------------------|
----------------------------------------------------|
----------------------------------------------------|
----------------------------------------------------|


--------------------------------5--------8----------|
----------------------------------------------------|
--2-----------------0L----0-------------------------|
----------------------------------------------------|
----------------------------------------------------|
----------------------------------------------------|


www.chordzone.org
 
--8--------------------5----|
----------------------------|
----------------------------|
----------------------------|
----------------------------|
----------------------------|


--5-----------------------------5--3--------3-------|
----------------------------------------------------|
----------------------------------------------------|
----------------------------------------------------|
----------------------------------------------------|
----------------------------------------------------|


--3-----------------------------------1--3--1-------|
-----------------------------------------------3----|
----------------------------------------------------|
----------------------------------------------------|
----------------------------------------------------|
----------------------------------------------------|


--1-----------------------------5--------8----------|
----------------------------------------------------|
----------------------------------------------------|
----------------------------------------------------|
----------------------------------------------------|
----------------------------------------------------|


--8--------5L-5-----------------5--3--------3-------|
----------------------------------------------------|
----------------------------------------------------|
----------------------------------------------------|
----------------------------------------------------|
----------------------------------------------------|


--3-----------------------------5--5--------3-------|
----------------------------------------------------|
----------------------------------------------------|
----------------------------------------------------|
----------------------------------------------------|
----------------------------------------------------|


--------3-----------------------5-------------------|--1-------------|
-----------------------------------3--------3-------|----------------|
----------------------------------------------------|----------------|
----------------------------------------------------|----------------|
----------------------------------------------------|----------------|
----------------------------------------------------|----------------|


--------13----13----12----13-------10-------10------|
----------------------------------------------------|
----------------------------------------------------|
----------------------------------------------------|
----------------------------------------------------|
----------------------------------------------------|


--10----12-10-------8L----8-------------------------|
----------------------------------------------------|
----------------------------------------------------|
----------------------------------------------------|
----------------------------------------------------|
----------------------------------------------------|


--------13----13----12----13-------10-------10------|
----------------------------------------------------|
----------------------------------------------------|
----------------------------------------------------|
----------------------------------------------------|
----------------------------------------------------|


--10-------12-------8L----8-------------------------|
----------------------------------------------------|
----------------------------------------------------|
----------------------------------------------------|
----------------------------------------------------|
----------------------------------------------------|


--------13----13----12----13-------10-------10------|
----------------------------------------------------|
----------------------------------------------------|
----------------------------------------------------|
----------------------------------------------------|
----------------------------------------------------|


--10----12-10-------8L----8-----------------17------|
----------------------------------------------------|
----------------------------------------------------|
----------------------------------------------------|
----------------------------------------------------|
----------------------------------------------------|


--17----15-15-------17----17----15-15-------17------|
----------------------------------------------------|
----------------------------------------------------|
----------------------------------------------------|
----------------------------------------------------|
----------------------------------------------------|


--17----15-15-------13------------------------------|
----------------------------------------------------|
----------------------------------------------------|
----------------------------------------------------|
----------------------------------------------------|
----------------------------------------------------|


--15-------17L17----13------|--15-------17L17------------|--15-15-15-15---|
----------------------------|----------------------------|----------------|
----------------------------|----------------------------|----------------|
----------------------------|----------------------------|----------------|
----------------------------|----------------------------|----------------|
----------------------------|----------------------------|----------------|


--15-15-17-15L15-13-13------|--15-------17L17----13------|
----------------------------|----------------------------|
----------------------------|----------------------------|
----------------------------|----------------------------|
----------------------------|----------------------------|
----------------------------|----------------------------|


--15----17-17-15------------|--15-15-15-15---|--15----17-15-13------------|
----------------------------|----------------|----------------------------|
----------------------------|----------------|----------------------------|
----------------------------|----------------|----------------------------|
----------------------------|----------------|----------------------------|
----------------------------|----------------|----------------------------|


----------------------------|----------------------------|
--10----------------13-8L---|--8--------6L-6-----8-------|
----------------------------|----------------------------|
----------------------------|----------------------------|
----------------------------|----------------------------|
----------------------------|----------------------------|


--1-----0-------------------|----------------------------|
-----------3--1-------------|----------------------------|
----------------------------|--2--------0L-0-------------|
----------------------------|----------------------------|
----------------------------|----------------------------|
----------------------------|----------------------------|

www.chordzone.org
 

----------------------------|-----------0L-0-------------|
--10----------------13-8L---|--8-------------------------|
----------------------------|----------------------------|
----------------------------|----------------------------|
----------------------------|----------------------------|
----------------------------|----------------------------|


--0--1--0-------------------------------------------|
-----------3--1-----------------------------3-------|
----------------------------------------------------|
----------------------------------------------------|
----------------------------------------------------|
----------------------------------------------------|


----------------------------|-------||
----------------------------|-------||
--2--------0L-0L-------0L---|--0----||
----------------------------|-------||
----------------------------|-------||
----------------------------|-------||


Recommended for you:


Click to rate this post!
[Total: 0 Average: 0]

To The Top Get The Guitar Tabs

See Also