Now Reading
WILBUR SOOT – Your New Boyfriend Guitar Tabs

WILBUR SOOT – Your New Boyfriend Guitar Tabs

Enable Light Mode
#
A+
A-

This single was released on 12 December 2020. The vocals are by Wilbur Soot,the music is produced by Wilbur Soot, and the lyrics are written by Wilbur Soot,.
It is originally in the key of G Major. You can change it to any key you want, using the Transpose option. The average tempo is 95 BPM. These chords are simple and easy to play on the guitar, ukulele or piano.
Vocals: Wilbur Soot,
Producer: Wilbur Soot,
Writer: Wilbur Soot,

Click here for the chords and lyrics version

 
Original Key: G Major
Time Signature: 4/4
Tempo: 95
Suggested Strumming: DU,DU,DU,DU
c h o r d  z o n e . o r g
Legend
L - tied note
x - dead note
h - hammer on/pull off
b - bend
s - slide
~ - vibrato
g - ghost note
> - accentuated note
t - trill
M - palm mute
. - staccato
P - popping (bass)
S - slapping (bass)
+ - tapping
W - wide vibrato
< - fade in
w - whammy bar
= - tremolo picking
v - brush up
^ - brush down
V - pick stroke up
n - pick stroke down


E |-------|--7-----7--7--5-----5--5--5-----7-------------------|
B |-------|--------------------------------------8-------------|
G |-------|----------------------------------------------------|
D |-------|----------------------------------------------------|
A |-------|----------------------------------------------------|
E |-------|----------------------------------------------------|


--7-----7--7--5-----5--5--5-----7-------------------|
--------------------------------------8-------------|
----------------------------------------------------|
----------------------------------------------------|
----------------------------------------------------|
----------------------------------------------------|


--7--------7--5-----------10-------7--------5-------|
--------------------8-------------------------------|
----------------------------------------------------|
----------------------------------------------------|
----------------------------------------------------|
----------------------------------------------------|

www.chordzone.org
 

--5--7-----7--------------10-------7L-7-------------|
--------------------8-------------------------------|
----------------------------------------------------|
----------------------------------------------------|
----------------------------------------------------|
----------------------------------------------------|


--7-----7--7--5-----5--5--5-----5--7--5-------------|
-----------------------------------------8----------|
----------------------------------------------------|
----------------------------------------------------|
----------------------------------------------------|
----------------------------------------------------|


--7-----7--7--5-----5--5--5-----5--10-5-------------|
-----------------------------------------8----------|
----------------------------------------------------|
----------------------------------------------------|
----------------------------------------------------|
----------------------------------------------------|


--------7--7-----3-----10L10-------7--7--8----------|
----------------------------------------------------|
----------------------------------------------------|
----------------------------------------------------|
----------------------------------------------------|
----------------------------------------------------|


--5--------5--5-----3-----10----7--5----------------|----------------|
--------------------------------------------8L------|--8-------------|
----------------------------------------------------|----------------|
----------------------------------------------------|----------------|
----------------------------------------------------|----------------|
----------------------------------------------------|----------------|


--7-----7--7--7-----5--5-----5-----7--5-------------|-------|
--------------------------------------------8-------|-------|
----------------------------------------------------|-------|
----------------------------------------------------|-------|
----------------------------------------------------|-------|
----------------------------------------------------|-------|


--7-----7--7--7-----5--5-----5-----7--5-----7-------|-------|
----------------------------------------------------|-------|
----------------------------------------------------|-------|
----------------------------------------------------|-------|
----------------------------------------------------|-------|
----------------------------------------------------|-------|


--7--7--7--7--7-----------10----8--7L-7-------------|
--------------------8-------------------------------|
----------------------------------------------------|
----------------------------------------------------|
----------------------------------------------------|
----------------------------------------------------|


--7--7--7--7--7-----------10----8--7L-7-------------|
--------------------8-------------------------------|
----------------------------------------------------|
----------------------------------------------------|
----------------------------------------------------|
----------------------------------------------------|


--7--7--7--7--7-----------10----8--7L-7-------------|
--------------------8-------------------------------|
----------------------------------------------------|
----------------------------------------------------|
----------------------------------------------------|
----------------------------------------------------|


--7-----7-----7-----3-----5--7-----7--------7--5----|
----------------------------------------------------|
----------------------------------------------------|
----------------------------------------------------|
----------------------------------------------------|
----------------------------------------------------|


-----5L-5-------------------|
----------------------------|
----------------------------|
----------------------------|
----------------------------|
----------------------------|


--5-----5-----5-----------7-------------------------|-------|
--------------------8--8-----------8L-8-------------|-------|
----------------------------------------------------|-------|
----------------------------------------------------|-------|
----------------------------------------------------|-------|
----------------------------------------------------|-------|


--10----7-------------------------------------------|
--------------8-----------7--------8L-8-------------|
----------------------------------------------------|
----------------------------------------------------|
----------------------------------------------------|
----------------------------------------------------|


--10----7--------------------------0L-0-------------|
--------------8-------------------------------------|
--------------------------7-------------------------|
----------------------------------------------------|
----------------------------------------------------|
----------------------------------------------------|


--10----7--------------------------8L-8-------------|
--------------8-----------7-------------------------|
----------------------------------------------------|
----------------------------------------------------|
----------------------------------------------------|
----------------------------------------------------|


--10----7--------------------------5L-5-------------|
--------------8-----------8-------------------------|
----------------------------------------------------|
----------------------------------------------------|
----------------------------------------------------|
----------------------------------------------------|


--10----7-------------------------------------------|
--------------8-----------7--------8L-8-------------|
----------------------------------------------------|
----------------------------------------------------|
----------------------------------------------------|
----------------------------------------------------|


www.chordzone.org
 
--10----7--------------------------0L-0-------------|
--------------8-------------------------------------|
--------------------------7-------------------------|
----------------------------------------------------|
----------------------------------------------------|
----------------------------------------------------|


--10----7--------------------------8L-8-------------|
--------------8-----------7-------------------------|
----------------------------------------------------|
----------------------------------------------------|
----------------------------------------------------|
----------------------------------------------------|


--------------5--5-----5--7--7-----7--8L------------|--8-------||
--8--8-----8----------------------------------------|----------||
----------------------------------------------------|----------||
----------------------------------------------------|----------||
----------------------------------------------------|----------||
----------------------------------------------------|----------||


Recommended for you:


Click to rate this post!
[Total: 0 Average: 0]

To The Top Get The Guitar Tabs

See Also