LIL NAS X – Montero (Call Me By Your Name) Guitar Tabs

Enable Light Mode
#
A+
A-

This single was released on 26 March 2021. The vocals are by Lil Nas X, the music is produced by Roy Lenzo, David Biral, Denzel Baptiste, Omer Fedi , Lil Nas X, and the lyrics are written by Roy Lenzo, Omer Fedi , Take a Daytrip.
This song is originally in the key of G# Minor. You can change it to any key you want, using the Transpose option. The average tempo is 90 BPM. These chords are simple and easy to play on the guitar, ukulele or piano.

Click here for the chords and lyrics version

 
Original Key: G# Minor
Time Signature: 4/4
Tempo: 90
Suggested Strumming: DU,DU,DU,DU
c h o r d  z o n e . o r g


Legend
L - tied note
x - dead note
h - hammer on/pull off
b - bend
s - slide
~ - vibrato
g - ghost note
> - accentuated note
t - trill
M - palm mute
. - staccato
P - popping (bass)
S - slapping (bass)
+ - tapping
W - wide vibrato
< - fade in
w - whammy bar
= - tremolo picking
v - brush up
^ - brush down
V - pick stroke up
n - pick stroke down


E |----------------------------|
B |----------------------------|
G |-----------------------1----|
D |----------------------------|
A |----------------------------|
E |----------------------------|


----------------------------------------------------|
--------4--4L-4--2--0--2----------------------------|
--1-----------------------------------------4--3----|
----------------------------------------------------|
----------------------------------------------------|
----------------------------------------------------|


----------------------------------------------------|
--------4--4L-4--2--0--2L-2-------------------------|
--1-----------------------------------------4--3----|
----------------------------------------------------|
----------------------------------------------------|
----------------------------------------------------|


----------------------------------------------------|
--------4--4L-4--2--0--2L-2--------0--0--0--0-------|
--1--------------------------------------------3----|
----------------------------------------------------|
----------------------------------------------------|
----------------------------------------------------|


----------------------------------------------------|
--------4--4L-4--2--0--2L-2-----4-----4-----4-------|
--1-------------------------------------------------|
----------------------------------------------------|
----------------------------------------------------|
----------------------------------------------------|


--4--4--6-----7--6--4--2----------------------------|
--------------------------4--2--0L----0-------------|
----------------------------------------------------|
----------------------------------------------------|
----------------------------------------------------|
----------------------------------------------------|


--4--4--6-----7--6--4--2----------------------------|
--------------------------4--2--0-----4--4--4--4----|
----------------------------------------------------|
----------------------------------------------------|
----------------------------------------------------|
----------------------------------------------------|


--4--4--6-----7--6--4--2----------------------------|
--------------------------4--2--0-------------------|
--------------------------------------------1--1----|
----------------------------------------------------|
----------------------------------------------------|
----------------------------------------------------|


----------------------------------------------------|
--4--4--2--0--2--0--------4--4--2--0--2--0----------|
--------------------1--1--------------------1-------|
----------------------------------------------------|
----------------------------------------------------|
----------------------------------------------------|


--------4-------------------------------------------|
--------------4-----2-----2--4--2-------------------|
-----------------------------------4--1-------------|
----------------------------------------------------|
----------------------------------------------------|
----------------------------------------------------|

www.chordzone.org
 

----------------------------------------------------|
--2--4--2-----------0-----2--4--2--0----------------|
-----------4--1-----------------------3-------------|
----------------------------------------------------|
----------------------------------------------------|
----------------------------------------------------|


--------4-------------------------------------------|
--------------4-----2-----2--4--2--0----------------|
--------------------------------------1-------------|
----------------------------------------------------|
----------------------------------------------------|
----------------------------------------------------|


----------------------------------------------------|
--2--4--2--0--------0-----2--4--2--0----------------|
--------------1-----------------------3-------------|
----------------------------------------------------|
----------------------------------------------------|
----------------------------------------------------|


-----------------------------0--0-----0-------------|
--2--4--4--2--4-----------4--------4----------------|
----------------------------------------------------|
----------------------------------------------------|
----------------------------------------------------|
----------------------------------------------------|


--0--0--0--0--2-----0-------------------------------|
--------------------------4--4--4--2--4-------------|
----------------------------------------------------|
----------------------------------------------------|
----------------------------------------------------|
----------------------------------------------------|


-----------------------------0--0-----0-------------|
--2--4--4--2--4-----------4--------4----------------|
----------------------------------------------------|
----------------------------------------------------|
----------------------------------------------------|
----------------------------------------------------|


--0--0--0--0--2-----0-------------------------------|--------0-------|
--------------------------4--4--4--2--4-------------|--4-------------|
--------------------------------------------1-------|----------------|
----------------------------------------------------|----------------|
----------------------------------------------------|----------------|
----------------------------------------------------|----------------|


--0-----2--0----------------|--------0-------|--0-----2--0----------------|
--------------4-------------|--4-------------|--------------4L------------|
----------------------------|----------------|----------------------------|
----------------------------|----------------|----------------------------|
----------------------------|----------------|----------------------------|
----------------------------|----------------|----------------------------|


----------|----------------------------------------------------|
--4-------|-----------------------------------4--4-----2--0----|
----------|-----------------------1-----1----------------------|
----------|----------------------------------------------------|
----------|----------------------------------------------------|
----------|----------------------------------------------------|


----------------------------------------------------|
--2--------------------------------4--4-----2--0----|
-----------------------4--3--1----------------------|
----------------------------------------------------|
----------------------------------------------------|
----------------------------------------------------|


----------------------------------------------------|
--2--------------------0-----------4--4-----2--0----|
--------------------------3--1----------------------|
----------------------------------------------------|
----------------------------------------------------|
----------------------------------------------------|


----------------------------------------------------|
--2-----------0--0--0--0-----------4--4-----2--0----|
--------------------------3--1----------------------|
----------------------------------------------------|
----------------------------------------------------|
----------------------------------------------------|


-----------------------------4--4--6-----7--6--4----|
--2--------4-----4-----4----------------------------|
----------------------------------------------------|
----------------------------------------------------|
----------------------------------------------------|
----------------------------------------------------|


--2--------------------------4--4--6-----7--6--4----|
-----4--2--0L-0-------------------------------------|
----------------------------------------------------|
----------------------------------------------------|
----------------------------------------------------|
----------------------------------------------------|


--2--------------------------4--4--6-----7--6--4----|
-----4--2--0L-0--4--4--4--4-------------------------|
----------------------------------------------------|
----------------------------------------------------|
----------------------------------------------------|
----------------------------------------------------|


--2-------------------------------------------------|
-----4--2--0L-0--------------4--4--2--0--2--0-------|
-----------------------1--1--------------------1----|
----------------------------------------------------|
----------------------------------------------------|
----------------------------------------------------|


-----------------------------------4----------------|
-----4--4--2--0--2--0--------------------4-----2----|
--1--------------------1----------------------------|
----------------------------------------------------|
----------------------------------------------------|
----------------------------------------------------|


----------------------------------------------------|
-----2--4--2--0--------------2--4--2--0--------0L---|
-----------------1-----------------------1----------|
----------------------------------------------------|
----------------------------------------------------|
----------------------------------------------------|


-----------------------------------4----------------|
--0--2--4--2--0--------------------------4-----2----|
-----------------3----------------------------------|
----------------------------------------------------|
----------------------------------------------------|
----------------------------------------------------|


----------------------------------------------------|
-----2--4--2--0--------------2--4--2--0--------0L---|
-----------------1-----------------------1----------|
----------------------------------------------------|
----------------------------------------------------|
----------------------------------------------------|


----------------------------------------------------|
--0--2--4--2--0--------------2--4--4--2--4----------|
-----------------3----------------------------------|
----------------------------------------------------|
----------------------------------------------------|
----------------------------------------------------|


--------0--0-----0-----------0--0--0--0--2-----0----|
-----4--------4-------------------------------------|
----------------------------------------------------|
----------------------------------------------------|
----------------------------------------------------|
----------------------------------------------------|


----------------------------------------------------|
-----4--4--4--2--4-----------2--4--4--2--4----------|
----------------------------------------------------|
----------------------------------------------------|
----------------------------------------------------|
----------------------------------------------------|


--------0--0-----0-----------0--0--0--0--2-----0----|
-----4--------4-------------------------------------|
----------------------------------------------------|
----------------------------------------------------|
----------------------------------------------------|
----------------------------------------------------|


----------------------------------------------------|
-----4--4--4--2--4-----------4----------------------|
-----------------------1L-1-------------------------|
----------------------------------------------------|
----------------------------------------------------|
----------------------------------------------------|


-----0L-------0--------------0L-------0--2-----0----|
----------------------------------------------------|
----------------------------------------------------|
----------------------------------------------------|
----------------------------------------------------|
----------------------------------------------------|


----------------------------------------------------|
-----4-----------------------4----------------------|
----------------------------------------------------|
----------------------------------------------------|
----------------------------------------------------|
----------------------------------------------------|

www.chordzone.org
 

-----0L-------0--------------0L-------0--2-----0----|
----------------------------------------------------|
----------------------------------------------------|
----------------------------------------------------|
----------------------------------------------------|
----------------------------------------------------|


----------------------------------------------------||
-----4L-------4-------------------------------------||
----------------------------------------------------||
----------------------------------------------------||
----------------------------------------------------||
----------------------------------------------------||


Recommended for you:


Click to rate this post!
[Total: 0 Average: 0]

To The Top Get The Guitar Tabs

See Also