Now Reading
AASHIQUI 2 – Sunn Raha Hai Na Tu Guitar Tabs

AASHIQUI 2 – Sunn Raha Hai Na Tu Guitar Tabs

Enable Light Mode
#
A+
A-

This song is from the movie Aashiqui 2, released on 13 May 2013 starring Aditya Roy Kapur as Rahul Jaykar & Shraddha Kapoor as Aarohi Shirke. The vocals are by Ankit Tiwari, the music is produced by Sandeep Nath, and the lyrics are written by Ankit Tiwari
This song is originally in the key of C# Minor. You can change it to any key you want, using the Transpose option. The average tempo is 85 BPM. These chords are simple and easy to play on the guitar, ukulele or piano.
Vocals: Ankit Tiwari,
Producer: Ankit Tiwari,
Writer: Sandeep Nath,

Click here for the chords and lyrics version

 
Original Key: C# Minor
Time Signature: 4/4
Tempo: 85
Suggested Strumming: DU,DU,DU,DU
c h o r d  z o n e . o r g

  
Legend
L - tied note
x - dead note
h - hammer on/pull off
b - bend
s - slide
~ - vibrato
g - ghost note
> - accentuated note
t - trill
M - palm mute
. - staccato
P - popping (bass)
S - slapping (bass)
+ - tapping
W - wide vibrato
< - fade in
w - whammy bar
= - tremolo picking
v - brush up
^ - brush down
V - pick stroke up
n - pick stroke down


E |-------|----------------------------|
B |-------|--------4L-4-----1--4L-4----|
G |-------|-----5-----3-----------3----|
D |-------|--------------1-------------|
A |-------|--3-------------------------|
E |-------|----------------------------|


--------5-----13----5L----5L----5L-5----------------|
----------------------------------------------------|
-----------------------------------0----------------|
--3L----3-----------------------3-----3-----1-------|
----------------------------------------------------|
----------------------------------------------------|


----------------------------|
--------4L-4-----1--4L-4----|
-----5-----3-----------3----|
--------------1-------------|
--3-------------------------|
----------------------------|


--------5-----13----5L----5L----5L-5----------------|
----------------------------------------------------|
-----------------------------------0----------------|
--3L----3-----------------------3-----3-----1-------|
----------------------------------------------------|
----------------------------------------------------|


----------------------------|-----1L-1-------------------|
-----4--3L-3-----4--3L-3----|--1L-1----------------------|
-----------3--5L-5-----3----|----------------------------|
----------------------------|----------------------------|
--3L-3----------------------|----------------------------|
----------------------------|----------------------------|


--------3--1L-1-----------------3--1L-1-------------|
----------------------------------------------------|
----------------------------------------------------|
----------------------------------------------------|
----------------------------------------------------|
----------------------------------------------------|


--------3--1L-1-------------------------------------|
----------------------------------------------------|
----------------------------------------------------|
----------------------------------------------------|
----------------------------------------------------|
----------------------------------------------------|


----------------------------------------------------|
--3L-3--3-----4-------------------------------------|
----------------------------------------------------|
----------------------------------------------------|
----------------------------------------------------|
----------------------------------------------------|


----------------------------------------------------|
--3--4--3--1----------------------------------------|
--------------3-----------------------------3--0L---|
----------------------------------------------------|
----------------------------------------------------|
----------------------------------------------------|


----------------------------|----------------------------|
--------1L-------1----------|--------4L-4-----1--4L-4----|
--0--3----------------------|-----5-----3-----------3----|
----------------------------|--------------1-------------|
----------------------------|--3-------------------------|
----------------------------|----------------------------|


--------5-----13----5L----5L----5L-5----------------|
----------------------------------------------------|
-----------------------------------0----------------|
--3L----3-----------------------3-----3-----1-------|
----------------------------------------------------|
----------------------------------------------------|


----------------------------|
--------4L-4-----1--4L-4----|
-----5-----3-----------3----|
--------------1-------------|
--3-------------------------|
----------------------------|


--------5-----13----5L----5L----5L-5----------------|
--------------------------------------------4-------|
-----------------------------------0----------------|
--3L----3-----------------------3-----3L----3-------|
----------------------------------------------------|
----------------------------------------------------|


----------------------------|----------------------------|
--3--1--1--1--1--------4----|--3--1--1--1--1--------3----|
----------------------------|----------------------------|
----------------------------|----------------------------|
----------------------------|----------------------------|
----------------------------|----------------------------|


-----------------1--1-------|----------------------------|
-----1--1--3--3--------3----|--3--1--1--------------4----|
--3-------------------------|-----------3--3--1----------|
----------------------------|----------------------------|
----------------------------|----------------------------|
----------------------------|----------------------------|


----------------------------|----------------------------|
--3--1--1--1--1--------4----|--3--1--1--1--1--------3----|
----------------------------|----------------------------|
----------------------------|----------------------------|
----------------------------|----------------------------|
----------------------------|----------------------------|


-----------------1--1-------|----------------------------|
-----1--1--3--3--------3----|--3--1--1-------------------|
--3-------------------------|-----------3--3--1----------|
----------------------------|----------------------------|
----------------------------|----------------------------|
----------------------------|----------------------------|


----------------------------|
-----4--3-----1--4--3-------|
-----------3-----------3----|
----------------------------|
----------------------------|
----------------------------|


--------1L----1-----------------3--1--3--1L---------|
--1-------------------------------------------------|
----------------------------------------------------|
----------------------------------------------------|
----------------------------------------------------|
----------------------------------------------------|


--1-------------------------|-----1L-1-----3-------------|
-----4--3-----1--4--3-------|--1-----------------1--3----|
-----------3-----------3----|----------------------------|
----------------------------|----------------------------|
----------------------------|----------------------------|
----------------------------|----------------------------|


----------------------------|----------------------------|
--4--3--1--1L-1--------1L---|--1L----------1--------3----|
----------------------------|--------------------5-------|
----------------------------|----------------------------|
----------------------------|----------------------------|
----------------------------|----------------------------|


----------------------------|----------------------------|
-----1--1--3L-3--------3L---|--3-----------------1--3----|
--3-------------------------|----------------------------|
----------------------------|----------------------------|
----------------------------|----------------------------|
----------------------------|----------------------------|


----------------------------------------------------|
--4-----3-----1-----1L----1-----------1-----1L------|
-----------------------------------------3----------|
----------------------------------------------------|
----------------------------------------------------|
----------------------------------------------------|


----------------------------|----------------------------|
--1--------------1--1--1----|--1-------------------------|
-----------1L-1-------------|-----1L-1--0L-0L-0L---------|
----------------------------|----------------------------|
----------------------------|----------------------------|
----------------------------|----------------------------|


----------------------------|----------------------------|
--------------------1--3----|--4--3--1--1L-1--------1L---|
--0-------------------------|----------------------------|
----------------------------|----------------------------|
----------------------------|----------------------------|
----------------------------|----------------------------|


----------------------------|----------------------------|
--1L----------1-----1--3----|-----1--1--3L-3--------3L---|
----------------------------|--3-------------------------|
----------------------------|----------------------------|
----------------------------|----------------------------|
----------------------------|----------------------------|


----------------------------|
--3-----------------1--3----|
----------------------------|
----------------------------|
----------------------------|
----------------------------|


----------------------------------------------------|
--4-----3-----1-----1L----1-----------1-----1L------|
-----------------------------------------3----------|
----------------------------------------------------|
----------------------------------------------------|
----------------------------------------------------|


----------------------------|----------------------------|----------------|
--1--------------1--1--1----|--1-------------------------|----------------|
-----------1L-1-------------|-----1L-1--0L-0L-0L---------|--0-------------|
----------------------------|----------------------------|----------------|
----------------------------|----------------------------|----------------|
----------------------------|----------------------------|----------------|


----------------------------|
-----------4-----------4----|
--------5L-5--3-----5L-5----|
-----------------1----------|
-----3----------------------|
----------------------------|


--------------5-----13------------------------------|
--------------------------10------------------------|
--3-------------------------------------------------|
--------3--------------------------------5--3-------|
--------------------------------------8-------------|
----------------------------------------------------|

www.chordzone.org

 

----------------------------|
-----------4-----------4----|
--------5L-5--3-----5L-5----|
--1--------------1----------|
-----3----------------------|
----------------------------|


--------------5-----13------------------------------|
--------------------------10------------------------|
--3--------------------------------------0----------|
--------3-----------------------------------3-------|
--------------------------------------8-------------|
----------------------------------------------------|


----------------------------|--------1L------------------|
--------4--3-----1--4--3----|-----1----------------------|
--------------3-------------|--3-------------------------|
--1-------------------------|----------------------------|
-----3----------------------|----------------------------|
----------------------------|----------------------------|


--1-----------3--1L-------1-----------3--1L---------|
----------------------------------------------------|
----------------------------------------------------|
----------------------------------------------------|
----------------------------------------------------|
----------------------------------------------------|


--1-----------3--1L-------1-------------------------|
----------------------------------------------------|
----------------------------------------------------|
----------------------------------------------------|
----------------------------------------------------|
----------------------------------------------------|


----------------------------------------------------|
--------3--1--3-----4L----4-------------------------|
----------------------------------------------------|
----------------------------------------------------|
----------------------------------------------------|
----------------------------------------------------|


----------------------------------------------------|
--------3--4--3--1----------------------------------|
--------------------3L----3-------------------------|
----------------------------------------------------|
----------------------------------------------------|
----------------------------------------------------|


----------------------------------------------------|
--------------------1L----1L-1L----------1----------|
--3-----------3-------------------------------------|
-----5----------------------------------------------|
----------------------------------------------------|
----------------------------------------------------|


----------------------------|
-----------4-----------4----|
--------5L-5--3-----5L-5----|
-----------------1----------|
-----3----------------------|
----------------------------|


--------------5-----13------------------------------|
--------------------------10------------------------|
--3-------------------------------------------------|
--------3--------------------------------5--3-------|
--------------------------------------8-------------|
----------------------------------------------------|


----------------------------|
-----------4-----------4----|
--------5L-5--3-----5L-5----|
--1--------------1----------|
-----3----------------------|
----------------------------|


--------------5-----13------------------------------|
--------------------------10------------------------|
--3-------------------------------------------------|
--------3--------------------------------5--3-------|
--------------------------------------8-------------|
----------------------------------------------------|


----------------------------|----------------------------|
--4--3--1--1--1--1----------|--4--3--1--1--1--1----------|
----------------------------|----------------------------|
----------------------------|----------------------------|
----------------------------|----------------------------|
----------------------------|----------------------------|


--------------------1--1----|----------------------------|
--3-----1--1--3--3----------|--3--3--1--1----------------|
-----3----------------------|--------------3--3--1L-1----|
----------------------------|----------------------------|
----------------------------|----------------------------|
----------------------------|----------------------------|


----------------------------|----------------------------|
--4--3--1--1--1--1----------|--4--3--1--1--1--1----------|
----------------------------|----------------------------|
----------------------------|----------------------------|
----------------------------|----------------------------|
----------------------------|----------------------------|


--------------------1--1----|----------------------------|
--3-----1--1--3--3----------|--3--3--1--1----------------|
-----3----------------------|--------------3--3--1L-1----|
----------------------------|----------------------------|
----------------------------|----------------------------|
----------------------------|----------------------------|


----------------------------|
--------4--3-----1--4--3----|
--------------3-------------|
----------------------------|
----------------------------|
----------------------------|


--------------1-----------------------3--1--3--1L---|
--------1-------------------------------------------|
--3-------------------------------------------------|
----------------------------------------------------|
----------------------------------------------------|
----------------------------------------------------|


--1-------------------------|--------1--------3----------|
--------4--3-----1--4--3----|-----1-----------------1----|
--------------3-------------|--3-------------------------|
----------------------------|----------------------------|
----------------------------|----------------------------|
----------------------------|----------------------------|


----------------------------|----------------------------|
--3--4--3--1--1-------------|--1--------------------1----|
----------------------------|----------------------------|
----------------------------|----------------------------|
----------------------------|----------------------------|
----------------------------|----------------------------|


----------------------------|----------------------------|
--3-----1--1--3-------------|--3--------------------1----|
-----3----------------------|----------------------------|
----------------------------|----------------------------|
----------------------------|----------------------------|
----------------------------|----------------------------|


----------------------------------------------------|
--3-----4-----3-----1-----1-----------------1-------|
-----------------------------------------------3----|
----------------------------------------------------|
----------------------------------------------------|
----------------------------------------------------|


----------------------------|----------------------------|
--1-----------------1--1----|--1--1----------------------|
--------------1-------------|--------1-----0L-0L---------|
----------------------------|----------------------------|
----------------------------|----------------------------|
----------------------------|----------------------------|


----------------------------|----------------------------|
-----------------------1----|--3--4--3--1--1-------------|
--0-------------------------|----------------------------|
----------------------------|----------------------------|
----------------------------|----------------------------|
----------------------------|----------------------------|


----------------------------|----------------------------|
--1--------------------1----|--3-----1--1--3-------------|
----------------------------|-----3----------------------|
----------------------------|----------------------------|
----------------------------|----------------------------|
----------------------------|----------------------------|


----------------------------|
--3--------------------1----|
----------------------------|
----------------------------|
----------------------------|
----------------------------|


----------------------------------------------------|
--3-----4-----3-----1-----1-----------------1-------|
-----------------------------------------------3----|
----------------------------------------------------|
----------------------------------------------------|
----------------------------------------------------|

www.chordzone.org
 

----------------------------|----------------------------|
--1-----------------1--1----|--1--1----------------------|
--------------1-------------|--------1-----0L-0L---------|
----------------------------|----------------------------|
----------------------------|----------------------------|
----------------------------|----------------------------|


----------------------------------------------------||
----------------------------------------------------||
--0-------------------------------------------------||
----------------------------------------------------||
----------------------------------------------------||
----------------------------------------------------||


Recommended for you:


Click to rate this post!
[Total: 0 Average: 0]

To The Top Get The Guitar Tabs

See Also