Now Reading
MÅNESKIN – I Wanna Be Your Slave Guitar Tabs

MÅNESKIN – I Wanna Be Your Slave Guitar Tabs

Enable Light Mode
#
A+
A-

This song is from the album Teatro d’Ira – Vol. I(2021), released on 19 March 2021. The vocals are by Måneskin, the music is produced by Damiano David, Ethan Torchio, Thomas Raggi , Victoria De Angelis, and the lyrics are written by Måneskin , Fabrizio Ferraguzzo.
This song is originally in the key of C# Minor. You can change it to any key you want, using the Transpose option. The average tempo is 125 BPM. These chords are simple and easy to play on the guitar, ukulele or piano.

Click here for the chords and lyrics version

 
Original Key: C# Minor
Time Signature: 4/4
Tempo: 125
Suggested Strumming: DU,DU,DU,DU
c h o r d  z o n e . o r g

 
Legend
L - tied note
x - dead note
h - hammer on/pull off
b - bend
s - slide
~ - vibrato
g - ghost note
> - accentuated note
t - trill
M - palm mute
. - staccato
P - popping (bass)
S - slapping (bass)
+ - tapping
W - wide vibrato
< - fade in
w - whammy bar
= - tremolo picking
v - brush up
^ - brush down
V - pick stroke up
n - pick stroke down


E |----------------------------|
B |----------------------------|
G |-----------------------6----|
D |----------------------------|
A |----------------------------|
E |----------------------------|


--9-----7-----4-----5-----4--------4--------5L------|
----------------------------------------------------|
----------------------------------------------------|
----------------------------------------------------|
----------------------------------------------------|
----------------------------------------------------|


--5-----4-----2-----4-------------------------------|
--------------------------2--------2--------2-------|
----------------------------------------------------|
----------------------------------------------------|
----------------------------------------------------|
----------------------------------------------------|


--9-----7-----4-----5-----4--------4--------5L------|
----------------------------------------------------|
----------------------------------------------------|
----------------------------------------------------|
----------------------------------------------------|
----------------------------------------------------|


--5-----4-----2-----4-------------------------------|
--------------------------2--------2--------2-------|
----------------------------------------------------|
----------------------------------------------------|
----------------------------------------------------|
----------------------------------------------------|


--9-----7-----4-----5-----4--------4--------5L------|
----------------------------------------------------|
----------------------------------------------------|
----------------------------------------------------|
----------------------------------------------------|
----------------------------------------------------|


--5-----4-----2-----4-------------------------------|
--------------------------2--------2--------2-------|
----------------------------------------------------|
----------------------------------------------------|
----------------------------------------------------|
----------------------------------------------------|


--0-----0-----0-----0-----0--------2----------------|
--------------------------------------------4L------|
----------------------------------------------------|
----------------------------------------------------|
----------------------------------------------------|
----------------------------------------------------|


----------------------------------------------------|
--4-----4-----4-----5-----2--------2--------2-------|
----------------------------------------------------|
----------------------------------------------------|
----------------------------------------------------|
----------------------------------------------------|


--9-----7-----4-----5-----4--------4--------5L------|
----------------------------------------------------|
----------------------------------------------------|
----------------------------------------------------|
----------------------------------------------------|
----------------------------------------------------|


--5-----4-----2-----4-------------------------------|
--------------------------2--------2--------2-------|
----------------------------------------------------|
----------------------------------------------------|
----------------------------------------------------|
----------------------------------------------------|


--9-----7-----4-----5-----4--------4--------5L------|
----------------------------------------------------|
----------------------------------------------------|
----------------------------------------------------|
----------------------------------------------------|
----------------------------------------------------|


--5-----4-----2-----4-------------------------------|
--------------------------2--------2--------2-------|
----------------------------------------------------|
----------------------------------------------------|
----------------------------------------------------|
----------------------------------------------------|


--9-----7-----4-----5-----4--------4--------5L------|
----------------------------------------------------|
----------------------------------------------------|
----------------------------------------------------|
----------------------------------------------------|
----------------------------------------------------|


--5-----4-----2-----4-----------------------0-------|
--------------------------2--------2----------------|
----------------------------------------------------|
----------------------------------------------------|
----------------------------------------------------|
----------------------------------------------------|


--0-----0-----0-----0-----0--------2----------------|
--------------------------------------------4L------|
----------------------------------------------------|
----------------------------------------------------|
----------------------------------------------------|
----------------------------------------------------|


----------------------------------------------------|
--4-----4-----4-----5-----2--------2--------2-------|
----------------------------------------------------|
----------------------------------------------------|
----------------------------------------------------|
----------------------------------------------------|


--9-----7-----4-----5-----4--------4--------5L------|
----------------------------------------------------|
----------------------------------------------------|
----------------------------------------------------|
----------------------------------------------------|
----------------------------------------------------|


--5-----4-----2-----4-------------------------------|
--------------------------2--------2--------2-------|
----------------------------------------------------|
----------------------------------------------------|
----------------------------------------------------|
----------------------------------------------------|


--9-----7-----4-----5-----4--------4--------5L------|
----------------------------------------------------|
----------------------------------------------------|
----------------------------------------------------|
----------------------------------------------------|
----------------------------------------------------|


--5-----4-----2-----4-------------------------------|
--------------------------2--------2--------2-------|
----------------------------------------------------|
----------------------------------------------------|
----------------------------------------------------|
----------------------------------------------------|


--9-----7-----4-----5-----4--------4--------5L------|
----------------------------------------------------|
----------------------------------------------------|
----------------------------------------------------|
----------------------------------------------------|
----------------------------------------------------|


--5-----4-----2-----4-------------------------------|
--------------------------2--------2--------2-------|
----------------------------------------------------|
----------------------------------------------------|
----------------------------------------------------|
----------------------------------------------------|


--0-----0-----0-----0-----0--------2----------------|
--------------------------------------------4L------|
----------------------------------------------------|
----------------------------------------------------|
----------------------------------------------------|
----------------------------------------------------|


----------------------------------------------------|
--4-----4-----4-----5-----2--------2--------2-------|
----------------------------------------------------|
----------------------------------------------------|
----------------------------------------------------|
----------------------------------------------------|


--9-----7-----4-----5-----4--------4--------5L------|
----------------------------------------------------|
----------------------------------------------------|
----------------------------------------------------|
----------------------------------------------------|
----------------------------------------------------|


--5-----4-----2-----4-------------------------------|
--------------------------2--------2--------2-------|
----------------------------------------------------|
----------------------------------------------------|
----------------------------------------------------|
----------------------------------------------------|


--9-----7-----4-----5-----4--------4--------5L------|
----------------------------------------------------|
----------------------------------------------------|
----------------------------------------------------|
----------------------------------------------------|
----------------------------------------------------|

www.chordzone.org
 

--5-----4-----2-----4-------------------------------|
--------------------------2--------2--------2-------|
----------------------------------------------------|
----------------------------------------------------|
----------------------------------------------------|
----------------------------------------------------|


--9-----7-----4-----5-----4--------4--------5L------|
----------------------------------------------------|
----------------------------------------------------|
----------------------------------------------------|
----------------------------------------------------|
----------------------------------------------------|


--5-----4-----2-----4-----------------------0-------|
--------------------------2--------2----------------|
----------------------------------------------------|
----------------------------------------------------|
----------------------------------------------------|
----------------------------------------------------|


--0-----0-----0-----0-----0--------2----------------|
--------------------------------------------4L------|
----------------------------------------------------|
----------------------------------------------------|
----------------------------------------------------|
----------------------------------------------------|


----------------------------------------------------|--0-------|
--4-----4-----4-----5-----2--------2--------2-------|----------|
----------------------------------------------------|----------|
----------------------------------------------------|----------|
----------------------------------------------------|----------|
----------------------------------------------------|----------|


-----------5L-5--------5----|--4-------------|--------------------4--4----|
----------------------------|----------------|----------------------------|
----------------------------|----------------|----------------------------|
----------------------------|----------------|----------------------------|
----------------------------|----------------|----------------------------|
----------------------------|----------------|----------------------------|


--4-----------4-----------4--------4--------5L------|
----------------------------------------------------|
----------------------------------------------------|
----------------------------------------------------|
----------------------------------------------------|
----------------------------------------------------|


--5-----5-----5-----5-----4--------4--------4-------|
----------------------------------------------------|
----------------------------------------------------|
----------------------------------------------------|
----------------------------------------------------|
----------------------------------------------------|


--4-----------4-----------4--------4--------4L------|
----------------------------------------------------|
----------------------------------------------------|
----------------------------------------------------|
----------------------------------------------------|
----------------------------------------------------|


--4-----5-----5-----5-----4--------4--------4-------|
----------------------------------------------------|
----------------------------------------------------|
----------------------------------------------------|
----------------------------------------------------|
----------------------------------------------------|


--4-----------4-----------4--------4--------4L------|
----------------------------------------------------|
----------------------------------------------------|
----------------------------------------------------|
----------------------------------------------------|
----------------------------------------------------|


--4-----5-----5-----5-----4--------4--------4-------|
----------------------------------------------------|
----------------------------------------------------|
----------------------------------------------------|
----------------------------------------------------|
----------------------------------------------------|


--4--4--4--4--4--4--4--4----|
----------------------------|
----------------------------|
----------------------------|
----------------------------|
----------------------------|


--5-----5-----5-----7-----5--------4--------4-------|
----------------------------------------------------|
----------------------------------------------------|
----------------------------------------------------|
----------------------------------------------------|
----------------------------------------------------|


--4-----------4-----------4--------4--------5L------|
----------------------------------------------------|
----------------------------------------------------|
----------------------------------------------------|
----------------------------------------------------|
----------------------------------------------------|


--5-----5-----5-----5-----4--------4--------4-------|
----------------------------------------------------|
----------------------------------------------------|
----------------------------------------------------|
----------------------------------------------------|
----------------------------------------------------|


--4-----------4-----------4--------4--------4L------|
----------------------------------------------------|
----------------------------------------------------|
----------------------------------------------------|
----------------------------------------------------|
----------------------------------------------------|


--4-----5-----5-----5-----4--------4--------4-------|
----------------------------------------------------|
----------------------------------------------------|
----------------------------------------------------|
----------------------------------------------------|
----------------------------------------------------|


--4-----------4-----------4--------4--------4L------|
----------------------------------------------------|
----------------------------------------------------|
----------------------------------------------------|
----------------------------------------------------|
----------------------------------------------------|


--4-----5-----5-----5-----4--------4--------4-------|
----------------------------------------------------|
----------------------------------------------------|
----------------------------------------------------|
----------------------------------------------------|
----------------------------------------------------|


--4--4--4--4--4--4--4--4----|
----------------------------|
----------------------------|
----------------------------|
----------------------------|
----------------------------|


--5-----5-----5-----7-----5--------4L-4L------------|--4----|
----------------------------------------------------|-------|
----------------------------------------------------|-------|
----------------------------------------------------|-------|
----------------------------------------------------|-------|
----------------------------------------------------|-------|


----------------------------|
----------------------------|
-----------------------6----|
----------------------------|
----------------------------|
----------------------------|


--9-----7-----4-----5-----4--------4--------5L------|
----------------------------------------------------|
----------------------------------------------------|
----------------------------------------------------|
----------------------------------------------------|
----------------------------------------------------|


--5-----4-----2-----4-------------------------------|
--------------------------2--------2--------2-------|
----------------------------------------------------|
----------------------------------------------------|
----------------------------------------------------|
----------------------------------------------------|


--9-----7-----4-----5-----4--------4--------5L------|
----------------------------------------------------|
----------------------------------------------------|
----------------------------------------------------|
----------------------------------------------------|
----------------------------------------------------|


--5-----4-----2-----4-------------------------------|
--------------------------2--------2--------2-------|
----------------------------------------------------|
----------------------------------------------------|
----------------------------------------------------|
----------------------------------------------------|


--9-----7-----4-----5-----4--------4--------5L------|
----------------------------------------------------|
----------------------------------------------------|
----------------------------------------------------|
----------------------------------------------------|
----------------------------------------------------|


--5-----4-----2-----4-------------------------------|
--------------------------2--------2--------2-------|
----------------------------------------------------|
----------------------------------------------------|
----------------------------------------------------|
----------------------------------------------------|


--0-----0-----0-----0-----0--------2----------------|
--------------------------------------------4L------|
----------------------------------------------------|
----------------------------------------------------|
----------------------------------------------------|
----------------------------------------------------|


----------------------------------------------------|
--4-----4-----4-----5-----2--------2--------2-------|
----------------------------------------------------|
----------------------------------------------------|
----------------------------------------------------|
----------------------------------------------------|


--9-----7-----4-----5-----4--------4--------5L------|
----------------------------------------------------|
----------------------------------------------------|
----------------------------------------------------|
----------------------------------------------------|
----------------------------------------------------|


--5-----4-----2-----4-------------------------------|
--------------------------2--------2--------2-------|
----------------------------------------------------|
----------------------------------------------------|
----------------------------------------------------|
----------------------------------------------------|


--9-----7-----4-----5-----4--------4--------5L------|
----------------------------------------------------|
----------------------------------------------------|
----------------------------------------------------|
----------------------------------------------------|
----------------------------------------------------|


--5-----4-----2-----4-------------------------------|
--------------------------2--------2--------2-------|
----------------------------------------------------|
----------------------------------------------------|
----------------------------------------------------|
----------------------------------------------------|


--9-----7-----4-----5-----4--------4--------5L------|
----------------------------------------------------|
----------------------------------------------------|
----------------------------------------------------|
----------------------------------------------------|
----------------------------------------------------|


--5-----4-----2-----4-----------------------0-------|
--------------------------2--------2----------------|
----------------------------------------------------|
----------------------------------------------------|
----------------------------------------------------|
----------------------------------------------------|


--0-----0-----0-----0-----0--------2----------------|
--------------------------------------------4L------|
----------------------------------------------------|
----------------------------------------------------|
----------------------------------------------------|
----------------------------------------------------|


----------------------------------------------------|
--4-----4-----4-----5-----2--------2--------2-------|
----------------------------------------------------|
----------------------------------------------------|
----------------------------------------------------|
----------------------------------------------------|


--9-----7-----4-----5-----4--------4--------5L------|
----------------------------------------------------|
----------------------------------------------------|
----------------------------------------------------|
----------------------------------------------------|
----------------------------------------------------|


--5-----4-----2-----4-------------------------------|
--------------------------2--------2--------2-------|
----------------------------------------------------|
----------------------------------------------------|
----------------------------------------------------|
----------------------------------------------------|


--9-----7-----4-----5-----4--------4--------5L------|
----------------------------------------------------|
----------------------------------------------------|
----------------------------------------------------|
----------------------------------------------------|
----------------------------------------------------|


--5-----4-----2-----4-------------------------------|
--------------------------2--------2--------2-------|
----------------------------------------------------|
----------------------------------------------------|
----------------------------------------------------|
----------------------------------------------------|


--9-----7-----4-----5-----4--------4--------5L------|
----------------------------------------------------|
----------------------------------------------------|
----------------------------------------------------|
----------------------------------------------------|
----------------------------------------------------|


--5-----4-----2-----4-------------------------------|
--------------------------2--------2--------2-------|
----------------------------------------------------|
----------------------------------------------------|
----------------------------------------------------|
----------------------------------------------------|


--0-----0-----0-----0-----0--------2----------------|
--------------------------------------------4L------|
----------------------------------------------------|
----------------------------------------------------|
----------------------------------------------------|
----------------------------------------------------|


----------------------------------------------------|
--4-----4-----4-----5-----2--------2--------2-------|
----------------------------------------------------|
----------------------------------------------------|
----------------------------------------------------|
----------------------------------------------------|


--9-----7-----4-----5-----4--------4--------5L------|
----------------------------------------------------|
----------------------------------------------------|
----------------------------------------------------|
----------------------------------------------------|
----------------------------------------------------|


--5-----4-----2-----4-------------------------------|
--------------------------2--------2--------2-------|
----------------------------------------------------|
----------------------------------------------------|
----------------------------------------------------|
----------------------------------------------------|


--9-----7-----4-----5-----4--------4--------5L------|
----------------------------------------------------|
----------------------------------------------------|
----------------------------------------------------|
----------------------------------------------------|
----------------------------------------------------|


--5-----4-----2-----4-------------------------------|
--------------------------2--------2--------2-------|
----------------------------------------------------|
----------------------------------------------------|
----------------------------------------------------|
----------------------------------------------------|


--9-----7-----4-----5-----4--------4--------5L------|
----------------------------------------------------|
----------------------------------------------------|
----------------------------------------------------|
----------------------------------------------------|
----------------------------------------------------|


--5-----4-----2-----4-----------------------0-------|
--------------------------2--------2----------------|
----------------------------------------------------|
----------------------------------------------------|
----------------------------------------------------|
----------------------------------------------------|


--0-----0-----0-----0-----0--------2----------------|
--------------------------------------------4L------|
----------------------------------------------------|
----------------------------------------------------|
----------------------------------------------------|
----------------------------------------------------|


----------------------------------------------------|--0-------|
--4-----4-----4-----5-----2--------2--------2-------|----------|
----------------------------------------------------|----------|
----------------------------------------------------|----------|
----------------------------------------------------|----------|
----------------------------------------------------|----------|


-----------5L-5--------5----|--4-------------|--------------------4--4----|
----------------------------|----------------|----------------------------|
----------------------------|----------------|----------------------------|
----------------------------|----------------|----------------------------|
----------------------------|----------------|----------------------------|
----------------------------|----------------|----------------------------|


--4-----------4-----------4--------4--------5L------|
----------------------------------------------------|
----------------------------------------------------|
----------------------------------------------------|
----------------------------------------------------|
----------------------------------------------------|


--5-----5-----5-----5-----4--------4--------4-------|
----------------------------------------------------|
----------------------------------------------------|
----------------------------------------------------|
----------------------------------------------------|
----------------------------------------------------|


--4-----------4-----------4--------4--------4L------|
----------------------------------------------------|
----------------------------------------------------|
----------------------------------------------------|
----------------------------------------------------|
----------------------------------------------------|


--4-----5-----5-----5-----4--------4--------4-------|
----------------------------------------------------|
----------------------------------------------------|
----------------------------------------------------|
----------------------------------------------------|
----------------------------------------------------|


--4-----------4-----------4--------4--------4L------|
----------------------------------------------------|
----------------------------------------------------|
----------------------------------------------------|
----------------------------------------------------|
----------------------------------------------------|


--4-----5-----5-----5-----4--------4--------4-------|
----------------------------------------------------|
----------------------------------------------------|
----------------------------------------------------|
----------------------------------------------------|
----------------------------------------------------|


--4--4--4--4--4--4--4--4----|
----------------------------|
----------------------------|
----------------------------|
----------------------------|
----------------------------|


--5-----5-----5-----7-----5--------4--------4-------|
----------------------------------------------------|
----------------------------------------------------|
----------------------------------------------------|
----------------------------------------------------|
----------------------------------------------------|


--4-----------4-----------4--------4--------5L------|
----------------------------------------------------|
----------------------------------------------------|
----------------------------------------------------|
----------------------------------------------------|
----------------------------------------------------|


--5-----5-----5-----5-----4--------4--------4-------|
----------------------------------------------------|
----------------------------------------------------|
----------------------------------------------------|
----------------------------------------------------|
----------------------------------------------------|


--4-----------4-----------4--------4--------4L------|
----------------------------------------------------|
----------------------------------------------------|
----------------------------------------------------|
----------------------------------------------------|
----------------------------------------------------|


--4-----5-----5-----5-----4--------4--------4-------|
----------------------------------------------------|
----------------------------------------------------|
----------------------------------------------------|
----------------------------------------------------|
----------------------------------------------------|


--4-----------4-----------4--------4--------4L------|
----------------------------------------------------|
----------------------------------------------------|
----------------------------------------------------|
----------------------------------------------------|
----------------------------------------------------|


--4-----5-----5-----5-----4--------4--------4-------|
----------------------------------------------------|
----------------------------------------------------|
----------------------------------------------------|
----------------------------------------------------|
----------------------------------------------------|

www.chordzone.org
 

--4--4--4--4--4--4--4--4----|
----------------------------|
----------------------------|
----------------------------|
----------------------------|
----------------------------|


--5-----5-----5-----7-----5--------4L-4L------------|--4----||
----------------------------------------------------|-------||
----------------------------------------------------|-------||
----------------------------------------------------|-------||
----------------------------------------------------|-------||
----------------------------------------------------|-------||


Recommended for you:


Click to rate this post!
[Total: 0 Average: 0]

To The Top Get The Guitar Tabs

See Also