Now Reading
ATRANGI RE – Chaka Chak Guitar Tabs

ATRANGI RE – Chaka Chak Guitar Tabs

Enable Light Mode
#
A+
A-

This song is from the movie Atrangi Re(2021), released on 29 November 2021 starring Akshay Kumar, Sara Ali Khan, Dhanush . The vocals are by Shreya Ghoshal, the music is produced by Irshad Kamil, and the lyrics are written by A R Rahman
This song is originally in the key of Eb Minor. You can change it to any key you want, using the Transpose option. The average tempo is 82 BPM. These chords are simple and easy to play on the guitar, ukulele or piano.
Vocals: Shreya Ghoshal,
Producer: A R Rahman ,
Writer: Irshad Kamil ,

Click here for the chords and lyrics version

 
Original Key: Eb Minor
Time Signature: 4/4
Tempo: 82
Suggested Strumming: DU,DU,DU,DU
c h o r d  z o n e . o r g

 
Legend
L - tied note
x - dead note
h - hammer on/pull off
b - bend
s - slide
~ - vibrato
g - ghost note
> - accentuated note
t - trill
M - palm mute
. - staccato
P - popping (bass)
S - slapping (bass)
+ - tapping
W - wide vibrato
< - fade in
w - whammy bar
= - tremolo picking
v - brush up
^ - brush down
V - pick stroke up
n - pick stroke down


www.chordzone.org
 
E |-------|-----------------1--1-------------------------------|
B |-------|-----4--4--3--4-------------------------------------|
G |-------|--3--------6----------------------------------------|
D |-------|----------------------------------------------------|
A |-------|----------------------------------------------------|
E |-------|----------------------------------------------------|


-----------------1--1-------------------------------|
-----4--4--3--4-------------------------------------|
--3--------6----------------------------------------|
----------------------------------------------------|
----------------------------------------------------|
----------------------------------------------------|


-----------------1--1-----1--2--1-------------------|
--4-----4--3--4--------4--------------2--1----------|
--------------------------------------------3-------|
----------------------------------------------------|
----------------------------------------------------|
----------------------------------------------------|


-----------------1--1-----1--2--1-------------------|
--4-----4--3--4--------4--------------4-------------|
----------------------------------------------------|
----------------------------------------------------|
----------------------------------------------------|
----------------------------------------------------|


-----------------1--1-----1--2--1-------------------|
--4-----4--3--4--------4--------------2--1----------|
--------------------------------------------3-------|
----------------------------------------------------|
----------------------------------------------------|
----------------------------------------------------|


-----------------1--1-----1--2--1-------------------|
--4-----4--3--4--------4--------------4-------------|
----------------------------------------------------|
----------------------------------------------------|
----------------------------------------------------|
----------------------------------------------------|


-----1--1--2-----1--1--2-----1-----------1----------|
--4-----------4-----------4-----4--3--4-----4--4----|
----------------------------------------------------|
----------------------------------------------------|
----------------------------------------------------|
----------------------------------------------------|


-----1--1--2--2--4--2-----1--2--1-------------------|
--4--------------------------------4--4L-4----------|
----------------------------------------------------|
----------------------------------------------------|
----------------------------------------------------|
----------------------------------------------------|


-----1--1--2-----1--1--2-----1-----------1--1--1----|
--4-----------4-----------4-----4--3--4-------------|
----------------------------------------------------|
----------------------------------------------------|
----------------------------------------------------|
----------------------------------------------------|


--1--4--4--4--2--4--2-----1--2--1-------------------|
-----------------------------------4--4L-4----------|
----------------------------------------------------|
----------------------------------------------------|
----------------------------------------------------|
----------------------------------------------------|


--1--4--4--6--6--6--6-----6--9--8-----8L-8--6-------|
----------------------------------------------------|
----------------------------------------------------|
----------------------------------------------------|
----------------------------------------------------|
----------------------------------------------------|


-----4-----6--6-----6-----6--9--8-----8L-8----------|
--6-----------------------------------------11------|
----------------------------------------------------|
----------------------------------------------------|
----------------------------------------------------|
----------------------------------------------------|


-----11----11-9-----8-----6L-6--8--6--4L-4--3-------|
--11------------------------------------------------|
----------------------------------------------------|
----------------------------------------------------|
----------------------------------------------------|
----------------------------------------------------|


--3-----4--3--4-----6L-6--2--2--2-----1-------------|
----------------------------------------------------|
----------------------------------------------------|
----------------------------------------------------|
----------------------------------------------------|
----------------------------------------------------|


-----------------1--1-----1--2--1-------------------|
--4-----4--3--4--------4--------------2--1----------|
--------------------------------------------3-------|
----------------------------------------------------|
----------------------------------------------------|
----------------------------------------------------|


-----------------1--1-----1--2--1-------------------|
--4-----4--3--4--------4--------------4-------------|
----------------------------------------------------|
----------------------------------------------------|
----------------------------------------------------|
----------------------------------------------------|


-----------------1--1-----1--2--1-----1-------------|
--4-----4--3--4--------4--------------------4-------|
----------------------------------------------------|
----------------------------------------------------|
----------------------------------------------------|
----------------------------------------------------|


-----------------1--1-----1--2--1-------------------|-------|
--4-----4--3--4--------4--------------4-------------|-------|
----------------------------------------------------|-------|
----------------------------------------------------|-------|
----------------------------------------------------|-------|
----------------------------------------------------|-------|


-----------------1--1-------------------------------|
-----4--4--3--4-------------------------------------|
--3--------6----------------------------------------|
----------------------------------------------------|
----------------------------------------------------|
----------------------------------------------------|


-----------------1--1-------------------------------|
-----4--4--3--4-------------------------------------|
--3--------6----------------------------------------|
----------------------------------------------------|
----------------------------------------------------|
----------------------------------------------------|


-----------------1--1-----1--2--1-------------------|
--4-----4--3--4--------4--------------2--1----------|
--------------------------------------------3-------|
----------------------------------------------------|
----------------------------------------------------|
----------------------------------------------------|


-----------------1--1-----1--2--1-------------------|
--4-----4--3--4--------4--------------4-------------|
----------------------------------------------------|
----------------------------------------------------|
----------------------------------------------------|
----------------------------------------------------|


-----------------1--1-----1--2--1-------------------|
--4-----4--3--4--------4--------------2--1----------|
--------------------------------------------3-------|
----------------------------------------------------|
----------------------------------------------------|
----------------------------------------------------|


-----------------1--1-----1--2--1-------------------|
--4-----4--3--4--------4--------------4-------------|
----------------------------------------------------|
----------------------------------------------------|
----------------------------------------------------|
----------------------------------------------------|


-----1--1--2-----1--1--2-----1-----------1----------|
--4-----------4-----------4-----4--3--4-----4--4----|
----------------------------------------------------|
----------------------------------------------------|
----------------------------------------------------|
----------------------------------------------------|


-----1--1--2--2--4--2-----1--2--1-------------------|
--4--------------------------------4--4L-4----------|
----------------------------------------------------|
----------------------------------------------------|
----------------------------------------------------|
----------------------------------------------------|


-----1--1--2-----1--1--2-----1-----------1--1--1----|
--4-----------4-----------4-----4--3--4-------------|
----------------------------------------------------|
----------------------------------------------------|
----------------------------------------------------|
----------------------------------------------------|


--1--4--4--4--2--4--2-----1--2--1-------------------|
-----------------------------------4--4L-4----------|
----------------------------------------------------|
----------------------------------------------------|
----------------------------------------------------|
----------------------------------------------------|


--1--4--4--6--6--6--6-----6--9--8-----8L-8--6-------|
----------------------------------------------------|
----------------------------------------------------|
----------------------------------------------------|
----------------------------------------------------|
----------------------------------------------------|


--1--4-----6--6-----6-----6--9--8-----8L-8----------|
--------------------------------------------11------|
----------------------------------------------------|
----------------------------------------------------|
----------------------------------------------------|
----------------------------------------------------|

www.chordzone.org
 

-----11----11-9-----8-----6L-6--8--6--4L-4--3-------|
--11------------------------------------------------|
----------------------------------------------------|
----------------------------------------------------|
----------------------------------------------------|
----------------------------------------------------|


--3-----4--3--4-----6L-6--2--2--2-----1-------------|
----------------------------------------------------|
----------------------------------------------------|
----------------------------------------------------|
----------------------------------------------------|
----------------------------------------------------|


-----------------1--1-----1--2--1-------------------|
--4-----4--3--4--------4--------------2--1----------|
--------------------------------------------3-------|
----------------------------------------------------|
----------------------------------------------------|
----------------------------------------------------|


-----------------1--1-----1--2--1-------------------|
--4-----4--3--4--------4--------------4-------------|
----------------------------------------------------|
----------------------------------------------------|
----------------------------------------------------|
----------------------------------------------------|


-----------------1--1-----1--2--1-----1-------------|
--4-----4--3--4--------4--------------------4-------|
----------------------------------------------------|
----------------------------------------------------|
----------------------------------------------------|
----------------------------------------------------|


-----------------1--1-----1--2--1-------------------||
--4-----4--3--4--------4--------------4-------------||
----------------------------------------------------||
----------------------------------------------------||
----------------------------------------------------||
----------------------------------------------------||


 

Recommended for you:


Click to rate this post!
[Total: 0 Average: 0]