Now Reading
ADELE – Hello Guitar Tabs

ADELE – Hello Guitar Tabs

Enable Light Mode
#
A+
A-

This song is from the album 25, released on 23 October 2015. Mind Blown! I didn’t expect any less from Adele. I have always been a huge fan of her and hearing this song made me an even bigger fan of hers. The energy and power ibn her voice is what makes this song so beautiful to listen. The reverb on her vocal and the high notes in her voice during the chorus and the bridge sound so beautiful.The vocals are by Adele, the music is produced by Adele , Greg Kurstin, and the lyrics are written by Greg Kurstin.
This song is originally in the key of F Minor. You can change it to any key you want, using the Transpose option. The average tempo is 80 BPM. These chords are simple and easy to play on the guitar, ukulele or piano.
Vocals: Adele ,
Producer: Greg Kurstin,
Writer: Adele , Greg Kurstin,

Click here for the chords and lyrics version

 
Original Key: F Minor
Time Signature: 4/4
Tempo: 80
Suggested Strumming: DU,DU,DU,DU
c h o r d  z o n e . o r g

Legend
L - tied note
x - dead note
h - hammer on/pull off
b - bend
s - slide
~ - vibrato
g - ghost note
> - accentuated note
t - trill
M - palm mute
. - staccato
P - popping (bass)
S - slapping (bass)
+ - tapping
W - wide vibrato
< - fade in
w - whammy bar
= - tremolo picking
v - brush up
^ - brush down
V - pick stroke up
n - pick stroke down


E |----------------------------------------------------|
B |----------------------------------------------------|
G |-----------------------------------------------3----|
D |----------------------------------------------------|
A |----------------------------------------------------|
E |----------------------------------------------------|


----------------------------|
--1-------------------------|
--------------------3--3----|
----------------------------|
----------------------------|
----------------------------|


----------------------------------------------------|
--------------------------------------------1--1L---|
--------------------------------------1-------------|
----------------------------------------------------|
----------------------------------------------------|
----------------------------------------------------|


----------------------------------------------------|
--1-----1--1--------1--1----------------------------|
--------------------------------3--3--------1L-1----|
----------------------------------------------------|
----------------------------------------------------|
----------------------------------------------------|


----------------------------------------------------|
--------1--------------------------------1-----1L---|
--3--------3-----------1L-1L----1-----1-------------|
--------------------3-------------------------------|
----------------------------------------------------|
----------------------------------------------------|


----------------------------------------------------|
--1-------------------------------------------------|
--------1-----------------------------3--3--3--3L---|
----------------------------------------------------|
----------------------------------------------------|
----------------------------------------------------|


----------------------------------------------------|
--------1L----1-----------------1-----1-----1--1L---|
--3-------------------------------------------------|
----------------------------------------------------|
----------------------------------------------------|
----------------------------------------------------|


----------------------------------------------------|
--1-----1--1--------1--1----------------------------|
--------------------------------3--1--------3L-3----|
----------------------------------------------------|
----------------------------------------------------|
----------------------------------------------------|


----------------------------------------------------|
----------------------------------------------------|
--3--------3--------1L----1--------------------3----|
--------------------------------3L-3----------------|
----------------------------------------------------|
----------------------------------------------------|


----------------------------------------------------|
-----1-----1L-1L----1-------------------------------|
--3-----3-----------------------------3L-3--3--3L---|
----------------------------------------------------|
----------------------------------------------------|
----------------------------------------------------|


----------------------------------------------------|
--------1-----------------------------------1--1L---|
--3-----------------------------------1-------------|
----------------------------------------------------|
----------------------------------------------------|
----------------------------------------------------|


----------------------------------------------------|
--1-----1--1--------1--1----------------------------|
--------------------------------3--3--------1L-1----|
----------------------------------------------------|
----------------------------------------------------|
----------------------------------------------------|


----------------------------------------------------|
--------1-----------------------------------1-------|
--3--------3-----------1--------1-----1-------------|
--------------------3-------------------------------|
----------------------------------------------------|
----------------------------------------------------|


----------------------------|----------------------------|
--1--------------------4----|--4--------2-----------1----|
--------1-------------------|--------5L-5--5--1L-1-------|
----------------------------|----------------------------|
----------------------------|----------------------------|
----------------------------|----------------------------|


----------------------------|----------|--1--1--4--4--6--6--6L------|
--1-------------------------|----------|----------------------------|
-----------3L-3-----1L-1L---|--1-------|----------------------------|
----------------------------|----------|----------------------------|
----------------------------|----------|----------------------------|
----------------------------|----------|----------------------------|


--6--------4L-4--------1----|
----------------------------|
----------------------------|
----------------------------|
----------------------------|
----------------------------|


--1-----1-----4-----4-----6-----6-----6--------8----|
----------------------------------------------------|
----------------------------------------------------|
----------------------------------------------------|
----------------------------------------------------|
----------------------------------------------------|


--6--4L-4--4--11-------8----|-----4L-4--4-----4--4--3----|
-----------------9L-9-------|----------------------------|
----------------------------|----------------------------|
----------------------------|----------------------------|
----------------------------|----------------------------|
----------------------------|----------------------------|


--1-----------11-------8----|-----4L-4--4L-4--4--4--3----|
-----4L-4--4-----9L-9-------|----------------------------|
----------------------------|----------------------------|
----------------------------|----------------------------|
----------------------------|----------------------------|
----------------------------|----------------------------|


--1-----------------1--1----|--4--4--6--6--6L------------|
-----4L-4-------------------|----------------------------|
----------------------------|----------------------------|
----------------------------|----------------------------|
----------------------------|----------------------------|
----------------------------|----------------------------|


--6--4L-4--------1--1--1----|
----------------------------|
----------------------------|
----------------------------|
----------------------------|
----------------------------|


--4-----4-----6-----6-----6--------8--6-----4L------|
----------------------------------------------------|
----------------------------------------------------|
----------------------------------------------------|
----------------------------------------------------|
----------------------------------------------------|


--4--4--11-------8-----4L---|--4--4-----4--4--3--1-------|
-----------9L-9-------------|-----------------------4L---|
----------------------------|----------------------------|
----------------------------|----------------------------|
----------------------------|----------------------------|
----------------------------|----------------------------|


--------11-------8-----4L---|--4--4L-4--4--4--3--1-------|
--4--4-----9L-9-------------|-----------------------4L---|
----------------------------|----------------------------|
----------------------------|----------------------------|
----------------------------|----------------------------|
----------------------------|----------------------------|


--------------1L----1-------------------------------|-------|-------|
--4-----4-----------1L----1-------------------------|-------|-------|
-----------------------------3--1L----1L-1L---------|--1----|-------|
----------------------------------------------------|-------|-------|
----------------------------------------------------|-------|-------|
----------------------------------------------------|-------|-------|


----------------------------------------------------|
--------1L----1L----1-------------------------------|
-----3--------------------------------------3-------|
----------------------------------------------------|
----------------------------------------------------|
----------------------------------------------------|


----------------------------|
----------------------------|
--3--------------------1----|
----------------------------|
----------------------------|
----------------------------|


----------------------------------------------------|
--1--1--------1--1--------1--1----------------------|
--------------------------------------3--3----------|
----------------------------------------------------|
----------------------------------------------------|
----------------------------------------------------|


----------------------------------------------------|
--------------1--------------------------------1----|
--1-----3--------3-----------1L-1L----1-----1-------|
--------------------------3-------------------------|
----------------------------------------------------|
----------------------------------------------------|


----------------------------------------------------|
-----1----------------------------------------------|
--------------1-----------------------------3--3----|
----------------------------------------------------|
----------------------------------------------------|
----------------------------------------------------|


----------------------------------------------------|
--------------1L----------1L-1--------1L-1--1-------|
--3--3----------------------------------------------|
----------------------------------------------------|
----------------------------------------------------|
----------------------------------------------------|


----------------------------------------------------|
--1--1--------1--1--------1--1----------------------|
--------------------------------------3--1----------|
----------------------------------------------------|
----------------------------------------------------|
----------------------------------------------------|


----------------------------------------------------|
----------------------------------------------------|
--3-----3--------3--------1L-1L-1-------------------|
--------------------------------------3-------------|
----------------------------------------------------|
----------------------------------------------------|


----------------------------------------------------|
-----------1-----1L-1-------------------------------|
-----3--3-----3-----------------------------3-------|
----------------------------------------------------|
----------------------------------------------------|
----------------------------------------------------|


----------------------------------------------------|
--------------1-------------------------------------|
--3--3--------------------------------------1-------|
----------------------------------------------------|
----------------------------------------------------|
----------------------------------------------------|


----------------------------------------------------|
--1--1--------1--1--------1--1----------------------|
--------------------------------------3--3----------|
----------------------------------------------------|
----------------------------------------------------|
----------------------------------------------------|


----------------------------------------------------|
--------------1-------------------------------------|
--1-----3--------3-----------1L-1-----1-----1-------|
--------------------------3-------------------------|
----------------------------------------------------|
----------------------------------------------------|


----------------------------|----------------------------|
--1--1L-1-------------------|--4--4L-4L-4--2L-2----------|
-----------1----------------|-----------5-----5--1-------|
----------------------------|----------------------------|
----------------------------|----------------------------|
----------------------------|----------------------------|


----------------------------|----------------|-----1--1--4--4--6--6--6L---|
--1--1L-1-------------------|----------------|----------------------------|
--------------3L-3-----1L---|--1-------------|----------------------------|
----------------------------|----------------|----------------------------|
----------------------------|----------------|----------------------------|
----------------------------|----------------|----------------------------|


--6--4----|--1--1--1--4--4--6--6--6----|
----------|----------------------------|
----------|----------------------------|
----------|----------------------------|
----------|----------------------------|
----------|----------------------------|


-----8--6-----4-----------4-----11------------------|
--------------------------------------9-------------|
----------------------------------------------------|
----------------------------------------------------|
----------------------------------------------------|
----------------------------------------------------|


--8-----4-----4-----4--4----|--3--1-----------11---------|
----------------------------|--------4-----4-----9-------|
----------------------------|----------------------------|
----------------------------|----------------------------|
----------------------------|----------------------------|
----------------------------|----------------------------|


--8-----4-----4-----4--4----|--3--1-----------------1----|
----------------------------|--------4-------------------|
----------------------------|----------------------------|
----------------------------|----------------------------|
----------------------------|----------------------------|
----------------------------|----------------------------|


--1--4--4--6--6--6L-6L------|--6-----4-----------1--1----|
----------------------------|----------------------------|
----------------------------|----------------------------|
----------------------------|----------------------------|
----------------------------|----------------------------|
----------------------------|----------------------------|


--1-----4-----4-----6-----6-----6--------8--6-------|
----------------------------------------------------|
----------------------------------------------------|
----------------------------------------------------|
----------------------------------------------------|
----------------------------------------------------|


--4-----4--11-------8-------|--4-----4-----4--4--3--1----|
--------------9-------------|----------------------------|
----------------------------|----------------------------|
----------------------------|----------------------------|
----------------------------|----------------------------|
----------------------------|----------------------------|


-----------11-------8-------|--4-----4-----4--4--3--1----|
--4-----4-----9-------------|----------------------------|
----------------------------|----------------------------|
----------------------------|----------------------------|
----------------------------|----------------------------|
----------------------------|----------------------------|


--------------------1-------------------------------|-------|
--4-----------4-----------1-------------------------|-------|
-----------------------------------3--1L-------1L---|--1L---|
----------------------------------------------------|-------|
----------------------------------------------------|-------|
----------------------------------------------------|-------|


----------------------------||
----------------------------||
--1-------------------------||
----------------------------||
----------------------------||
----------------------------||



Recommended for you:


Click to rate this post!
[Total: 0 Average: 0]

To The Top Get The Guitar Tabs

See Also