Now Reading
ADELE – My Little Love Guitar Tabs

ADELE – My Little Love Guitar Tabs

Enable Light Mode
#
A+
A-

This song is from the album 30, released on 19 November 2021. The vocals are by Adele, the music is produced by Greg Kurstin , Adele, and the lyrics are written by Greg Kurstin.
This song is originally in the key of F Minor. You can change it to any key you want, using the Transpose option. The average tempo is 76 BPM. These chords are simple and easy to play on the guitar, ukulele or piano.
Vocals: Adele ,
Producer: Greg Kurstin,
Writer: Greg Kurstin , Adele,

Click here for the chords and lyrics version

 
Original Key: F Minor
Time Signature: 4/4
Tempo: 76
Suggested Strumming: DU,DU,DU,DU
c h o r d  z o n e . o r g

 
Legend
L - tied note
x - dead note
h - hammer on/pull off
b - bend
s - slide
~ - vibrato
g - ghost note
> - accentuated note
t - trill
M - palm mute
. - staccato
P - popping (bass)
S - slapping (bass)
+ - tapping
W - wide vibrato
< - fade in
w - whammy bar
= - tremolo picking
v - brush up
^ - brush down
V - pick stroke up
n - pick stroke down


E |-------|----------------------------------------------------|
B |-------|--------------------------1-----------1-----1-------|
G |-------|-----------------------------------------3-----3----|
D |-------|----------------------------------------------------|
A |-------|----------------------------------------------------|
E |-------|----------------------------------------------------|


www.chordzone.org
 
----------------------------------------------------|
----------------------------------------------------|
--1-----------------------------------1--3--3L------|
----------------------------------------------------|
----------------------------------------------------|
----------------------------------------------------|


----------------------------------------------------|
-----------------------------------------1----------|
--3-----------------------3--------1--3-----3L-3----|
----------------------------------------------------|
----------------------------------------------------|
----------------------------------------------------|


----------------------------------------------------|
--------------------------------1-----1-----1-------|
--1--------------------------------3-----3-----3----|
----------------------------------------------------|
----------------------------------------------------|
----------------------------------------------------|


----------------------------------------------------|
--------------------------------------------1-------|
--------------------1--1--------------1--3-----3----|
--3-----------------------------3L-3----------------|
----------------------------------------------------|
----------------------------------------------------|


----------------------------------------------------|
--------------------------------1-----1-----1-------|
-----3L-------3--------------------------3----------|
----------------------------------------------------|
----------------------------------------------------|
----------------------------------------------------|


----------------------------------------------------|
--1-----------------------------------------1-------|
-----3--------------1--3--3L-3L----------3----------|
--------3L----3-------------------------------------|
----------------------------------------------------|
----------------------------------------------------|


----------------------------------------------------|
--------------------------------1-----1-----1-------|
--3-----1L----1--------------------------3----------|
----------------------------------------------------|
----------------------------------------------------|
----------------------------------------------------|


----------------------------------------------------|
--1-----------------------------------------1-------|
-----3--------------1-----1L-1--------1--3-----3----|
--------3L----3-------------------------------------|
----------------------------------------------------|
----------------------------------------------------|


----------------------------------------------------|
----------------------------------------------------|
-----3L-------3-------------------------------------|
----------------------------------------------------|
----------------------------------------------------|
----------------------------------------------------|


----------------------------------------------------|
--------------------------1-----------1-----1-------|
-----------------------------------3-----3-----3----|
----------------------------------------------------|
----------------------------------------------------|
----------------------------------------------------|


----------------------------------------------------|
----------------------------------------------------|
-----------------------1--3--3----------------------|
--3-------------------------------------------------|
----------------------------------------------------|
----------------------------------------------------|


----------------------------------------------------|
--------------------------------------------1-------|
--------------------------3--------1--3--------3L---|
----------------------------------------------------|
----------------------------------------------------|
----------------------------------------------------|


----------------------------------------------------|
--------------------------1L-1--------1-----1-------|
--3--1L-------1--------------------3-----3-----3----|
----------------------------------------------------|
----------------------------------------------------|
----------------------------------------------------|


----------------------------------------------------|
----------------------------------------------------|
--------------------1--3--3L-------3----------------|
--3-------------------------------------------------|
----------------------------------------------------|
----------------------------------------------------|


----------------------------------------------------|
--------------------1-------------------------------|
--3--------1--3--------3L-3--3L----3L-3L-------3----|
----------------------------------------------------|
----------------------------------------------------|
----------------------------------------------------|


----------------------------------------------------|
--1-----------1-----1-------------------------------|
-----------3-----3-----3--------------------1--3----|
--------------------------3L-------3----------------|
----------------------------------------------------|
----------------------------------------------------|


----------------------------------------------------|
-----------------------1----------------------------|
--3-----------1--3--------3-----3L----3L-3----------|
----------------------------------------------------|
----------------------------------------------------|
----------------------------------------------------|


----------------------------------------------------|
--1-----1-----1-----1-----1-------------------------|
-----------------------------3--------------1-------|
--------------------------------3--------3-----3----|
----------------------------------------------------|
----------------------------------------------------|


----------------------------------------------------|----------------|
--------------------1-------------------------------|----------------|
--1-----------3--------3-----3L----3L-3L-------3----|-----------1----|
-----------3----------------------------------------|----------------|
----------------------------------------------------|----------------|
----------------------------------------------------|----------------|


----------------------------------------------------|
--1L----------------1--1--1L-------1----------------|
----------------------------------------------------|
----------------------------------------------------|
----------------------------------------------------|
----------------------------------------------------|


--8L----------8--6--8--6--4-------------------------|
----------------------------------------------------|
--------------------------------------1--1--1--1----|
----------------------------------------------------|
----------------------------------------------------|
----------------------------------------------------|


--------------------------------------------8-------|
--1L----------------1--1--1-------------------------|
----------------------------------------------------|
----------------------------------------------------|
----------------------------------------------------|
----------------------------------------------------|


--8L----------8--6--8--6--4-------------------------|
----------------------------------------------------|
--------------------------------------1-------------|
----------------------------------------------------|
----------------------------------------------------|
----------------------------------------------------|


----------------------------------------------------|
--1L----------------1--1--1L-------1----------------|
----------------------------------------------------|
----------------------------------------------------|
----------------------------------------------------|
----------------------------------------------------|


--8L----------8--6--8--6--4-------------------------|
----------------------------------------------------|
--------------------------------------1--1--1--1----|
----------------------------------------------------|
----------------------------------------------------|
----------------------------------------------------|


--------------------------------------------8-------|
--1L----------------1--1--1-------------------------|
----------------------------------------------------|
----------------------------------------------------|
----------------------------------------------------|
----------------------------------------------------|


--8L----------8--6--8--6--4-------------------------|-------|
----------------------------------------------------|-------|
----------------------------------------------------|-------|
----------------------------------------------------|-------|
----------------------------------------------------|-------|
----------------------------------------------------|-------|


----------------------------------------------------|
-----------------------------------------1----------|
----------------------------------------------------|
----------------------------------------------------|
----------------------------------------------------|
----------------------------------------------------|


----------------------------------------------------|
-----1-----1----------------------------------------|
--------3-----3--1L-1L----1L-1----------------------|
----------------------------------------------------|
----------------------------------------------------|
----------------------------------------------------|


----------------------------------------------------|
----------------------------------------------------|
-----1--3--3L-3L----3L-------3-----------3----------|
----------------------------------------------------|
----------------------------------------------------|
----------------------------------------------------|


----------------------------------------------------|
--------1--------------------------------------1----|
--1--3-----3-----1L-1L----1L-1----------------------|
----------------------------------------------------|
----------------------------------------------------|
----------------------------------------------------|


----------------------------------------------------|
-----1-----1----------------------------------------|
--3-----3-----3--------------------1--1L-1----------|
-----------------3L-3L----3L-3-----------------3L---|
----------------------------------------------------|
----------------------------------------------------|


----------------------------------------------------|
-----------1-----------------------------------1----|
-----1--3-----3-----3L----3L-3----------------------|
--3-------------------------------------------------|
----------------------------------------------------|
----------------------------------------------------|


----------------------------------------------------|
-----1-----1-----1----------------------------------|
--------3-----------3--------------1--3--3L---------|
-----------------------3L-3L-3----------------------|
----------------------------------------------------|
----------------------------------------------------|


----------------------------------------------------|
-----------1-----------------------------------1----|
--3--------------3-----1L-1L-------1----------------|
----------------------------------------------------|
----------------------------------------------------|
----------------------------------------------------|


----------------------------------------------------|
-----1-----1-----1----------------------------------|
--------3-----------3--------------1-----1----------|
-----------------------3L-3L-3----------------------|
----------------------------------------------------|
----------------------------------------------------|


----------------------------------------------------|
-----------1----------------------------------------|
-----1--3-----3-----3L----3L-3----------------------|
----------------------------------------------------|
----------------------------------------------------|
----------------------------------------------------|


----------------------------------------------------|
-----------------------------------------1----------|
----------------------------------------------------|
----------------------------------------------------|
----------------------------------------------------|
----------------------------------------------------|


----------------------------------------------------|
-----1-----1----------------------------------------|
--3-----3-----3-----------------------1--3--3-------|
-----------------3L-3L----3L-3----------------------|
----------------------------------------------------|
----------------------------------------------------|


----------------------------------------------------|
----------------------------------------------------|
-----------------------------------------3----------|
----------------------------------------------------|
----------------------------------------------------|
----------------------------------------------------|


----------------------------------------------------|
-----------1-----------------------------1----------|
--1--3--------3-----1L----1L-1L-------1-------------|
----------------------------------------------------|
----------------------------------------------------|
----------------------------------------------------|


----------------------------------------------------|
-----1-----1----------------------------------------|
--3-----3-----3--------------------1--3--3----------|
-----------------3L-3L----3L-3----------------------|
----------------------------------------------------|
----------------------------------------------------|


----------------------------------------------------|
-----------------------------------1----------------|
-----------------3--------1--3--------3L-3--3L------|
----------------------------------------------------|
----------------------------------------------------|
----------------------------------------------------|


----------------------------------------------------|
-----------------1-----------1-----1----------------|
--3L----------3-----------3-----3-----3-------------|
-----------------------------------------3L---------|
----------------------------------------------------|
----------------------------------------------------|


----------------------------------------------------|
--------------------------------------1-------------|
-----------1--3--3-----------1--3L-3-----3-----3L---|
--3-------------------------------------------------|
----------------------------------------------------|
----------------------------------------------------|


----------------------------------------------------|
-----------------1-----1-----1-----1-----1----------|
--3-----------------------------------------3-------|
-----------------------------------------------3L---|
----------------------------------------------------|
----------------------------------------------------|


----------------------------------------------------|----------------|
-----------------------------------1----------------|----------------|
-----------1-----1L----1-----3L-3-----3-----3L-3L---|--3-------------|
--3-----3-----3-----------3-------------------------|----------------|
----------------------------------------------------|----------------|
----------------------------------------------------|----------------|


----------------------------------------------------|
-----------------1L-------1L-1--------1--1----------|
-----1L-------1-------------------------------------|
----------------------------------------------------|
----------------------------------------------------|
----------------------------------------------------|


-----------------8L-------8-----6--8--6--4----------|
----------------------------------------------------|
----------------------------------------------------|
----------------------------------------------------|
----------------------------------------------------|
----------------------------------------------------|


----------------------------------------------------|
-----------------1L-1L----1L-1--------1--1----------|
-----1--1--1--1-------------------------------------|
----------------------------------------------------|
----------------------------------------------------|
----------------------------------------------------|


-----------8-----8L-------8-----6--8--6--4----------|
----------------------------------------------------|
----------------------------------------------------|
----------------------------------------------------|
----------------------------------------------------|
----------------------------------------------------|


----------------------------------------------------|
-----------------1L-------1L-1--------1--1----------|
-----1L-------1-------------------------------------|
----------------------------------------------------|
----------------------------------------------------|
----------------------------------------------------|


-----------------8L-------8-----6--8--6--4----------|
----------------------------------------------------|
----------------------------------------------------|
----------------------------------------------------|
----------------------------------------------------|
----------------------------------------------------|


----------------------------------------------------|
-----------------1L-1L----1L-1--------1--1----------|
-----1--1--1--1-------------------------------------|
----------------------------------------------------|
----------------------------------------------------|
----------------------------------------------------|


-----------8-----8L-------8-----6--8--6--4L---------|
----------------------------------------------------|
----------------------------------------------------|
----------------------------------------------------|
----------------------------------------------------|
----------------------------------------------------|

www.chordzone.org
 

--4L----------4-------------------------------------||
----------------------------------------------------||
----------------------------------------------------||
----------------------------------------------------||
----------------------------------------------------||
----------------------------------------------------||


 

Recommended for you:


Click to rate this post!
[Total: 0 Average: 0]

To The Top Get The Guitar Tabs

See Also