Now Reading
JAX – Like My Father Guitar Tabs

JAX – Like My Father Guitar Tabs

Enable Light Mode
#
A+
A-

This single was released on 03 June 2021. The vocals are by Jax, the music is produced by Jax , Wayne Wilkins, and the lyrics are written by Wayne Wilkins , Bill Gerrity.
This song is originally in the key of F Major. You can change it to any key you want, using the Transpose option. The average tempo is 70 BPM. These chords are simple and easy to play on the guitar, ukulele or piano.

Click here for the chords and lyrics version

 
Original Key: F Major
Time Signature: 4/4
Tempo: 70
Suggested Strumming: DU,DU,DU,DU
c h o r d  z o n e . o r g

 
Legend
L - tied note
x - dead note
h - hammer on/pull off
b - bend
s - slide
~ - vibrato
g - ghost note
> - accentuated note
t - trill
M - palm mute
. - staccato
P - popping (bass)
S - slapping (bass)
+ - tapping
W - wide vibrato
< - fade in
w - whammy bar
= - tremolo picking
v - brush up
^ - brush down
V - pick stroke up
n - pick stroke down


www.chordzone.org
 
E |-------|--------------5--------5--3-------------------------|
B |-------|-----------------6--------------------5--------3----|
G |-------|--------------------5-------------------------------|
D |-------|----------------------------------------------------|
A |-------|----------------------------------------------------|
E |-------|--1-------------------------------------------------|


--------------1--------1--0-------------------------|
-----------------3--------------------1-------------|
--------------------2--------------------------3----|
--0-------------------------------------------------|
----------------------------------------------------|
----------------------------------------------------|


----------------------------------------------------|
--------------3--------3--1-------------------------|
-----------------3--------------------2-------------|
--------------------3--------------------------3----|
--1-------------------------------------------------|
----------------------------------------------------|


--------------------------------------0-------------|
--------------1-----------3-----------------1-------|
-----------------2-----2--------2-------------------|
--------------------3-------------------------------|
--3-------------------------------------------------|
----------------------------------------------------|


--1-----------5--5--5-----8--------------------5L---|
--------------------------------6-----6-------------|
----------------------------------------------------|
----------------------------------------------------|
----------------------------------------------------|
----------------------------------------------------|


--5-----------1--1--1--1--5-------------------------|
--------------------------------5-----5--------3----|
----------------------------------------------------|
----------------------------------------------------|
----------------------------------------------------|
----------------------------------------------------|


-----------------1-----1L-1--------------1-----0L---|
--------------1--------------1-----1L-1-------------|
----------------------------------------------------|
----------------------------------------------------|
----------------------------------------------------|
----------------------------------------------------|


--0-----------0-----0--0--1-----0-------------------|
-----------------------------------3--3--3--5--6L---|
----------------------------------------------------|
----------------------------------------------------|
----------------------------------------------------|
----------------------------------------------------|


--------------5--5--5--5--8--------------------5L---|
--6-----------------------------6-----6-------------|
----------------------------------------------------|
----------------------------------------------------|
----------------------------------------------------|
----------------------------------------------------|


--5-----------1-----1-----5-------------------------|
--------------------------------5-----5--------3----|
----------------------------------------------------|
----------------------------------------------------|
----------------------------------------------------|
----------------------------------------------------|


-----------------------1--1--------------1-----0L---|
--------------1--1--------------1-------------------|
----------------------------------------------------|
----------------------------------------------------|
----------------------------------------------------|
----------------------------------------------------|


--0-----------0-----0--0--1-----0-------------------|
-----------------------------------3--3--3-----1----|
----------------------------------------------------|
----------------------------------------------------|
----------------------------------------------------|
----------------------------------------------------|


-----------------0-----1--0--------0--0--1-----3----|
--------------3-------------------------------------|
--3-------------------------------------------------|
----------------------------------------------------|
----------------------------------------------------|
----------------------------------------------------|


--1--------1--1--3-----5--6-----5-----3-----1-------|
-----------------------------------------------3L---|
----------------------------------------------------|
----------------------------------------------------|
----------------------------------------------------|
----------------------------------------------------|


-----------------0-----1--0--------0--0--1-----3----|
--3-----------3-------------------------------------|
----------------------------------------------------|
----------------------------------------------------|
----------------------------------------------------|
----------------------------------------------------|


--1--------1--1--3-----5--6-----5-----3-----5--6L---|
----------------------------------------------------|
----------------------------------------------------|
----------------------------------------------------|
----------------------------------------------------|
----------------------------------------------------|


--6-----------5--6-----8-----3-----3--3--5-----6----|
----------------------------------------------------|
----------------------------------------------------|
----------------------------------------------------|
----------------------------------------------------|
----------------------------------------------------|


--5-----------1--3-----5--6-----5--3--3-----1-------|
----------------------------------------------------|
----------------------------------------------------|
----------------------------------------------------|
----------------------------------------------------|
----------------------------------------------------|


--------------------------6-----5-----3--------0----|--1-------|
--3-----------------1--1----------------------------|----------|
----------------------------------------------------|----------|
----------------------------------------------------|----------|
----------------------------------------------------|----------|
----------------------------------------------------|----------|


--------------5--------5--3-------------------------|
-----------------6--------------------5--------3----|
--------------------5-------------------------------|
----------------------------------------------------|
----------------------------------------------------|
--1-------------------------------------------------|


--------------1--------1--0-------------------------|
-----------------3--------------------1-------------|
--------------------2--------------------------3----|
--0-------------------------------------------------|
----------------------------------------------------|
----------------------------------------------------|


----------------------------------------------------|
--------------3--------3--1-------------------------|
-----------------3--------------------2-------------|
--------------------3--------------------------3----|
--1-------------------------------------------------|
----------------------------------------------------|


--------------------------------------0-------------|
--------------1-----------3-----------------1-------|
-----------------2-----2--------2-------------------|
--------------------3-------------------------------|
--3-------------------------------------------------|
----------------------------------------------------|


--1-----------5--5--5-----8--------------------5L---|
--------------------------------6-----6-------------|
----------------------------------------------------|
----------------------------------------------------|
----------------------------------------------------|
----------------------------------------------------|


--5-----------1--1--1--1--5-------------------------|
--------------------------------5-----5--------3----|
----------------------------------------------------|
----------------------------------------------------|
----------------------------------------------------|
----------------------------------------------------|


-----------------1-----1L-1--------------1-----0L---|
--------------1--------------1-----1L-1-------------|
----------------------------------------------------|
----------------------------------------------------|
----------------------------------------------------|
----------------------------------------------------|


--0-----------0-----0--0--1-------------------------|
--------------------------------5--3--3--3--5--6L---|
----------------------------------------------------|
----------------------------------------------------|
----------------------------------------------------|
----------------------------------------------------|


--------------5--5--5--5--8--------------------5L---|
--6-----------------------------6-----6-------------|
----------------------------------------------------|
----------------------------------------------------|
----------------------------------------------------|
----------------------------------------------------|


--5-----------1-----1-----5-------------------------|
--------------------------------5-----5--------3----|
----------------------------------------------------|
----------------------------------------------------|
----------------------------------------------------|
----------------------------------------------------|


-----------------------1--1--------------1-----0L---|
--------------1--1--------------1-------------------|
----------------------------------------------------|
----------------------------------------------------|
----------------------------------------------------|
----------------------------------------------------|


--0-----------0-----0--0--1-----0-------------------|
-----------------------------------3--3--3-----1----|
----------------------------------------------------|
----------------------------------------------------|
----------------------------------------------------|
----------------------------------------------------|


-----------------0-----1--0--------0--0--1-----3----|
--------------3-------------------------------------|
--3-------------------------------------------------|
----------------------------------------------------|
----------------------------------------------------|
----------------------------------------------------|


--1--------1--1--3-----5--6-----5-----3-----1-------|
-----------------------------------------------3L---|
----------------------------------------------------|
----------------------------------------------------|
----------------------------------------------------|
----------------------------------------------------|


-----------------------1--0--------0--0--1-----3----|
--3-----------3--5----------------------------------|
----------------------------------------------------|
----------------------------------------------------|
----------------------------------------------------|
----------------------------------------------------|


--1--------1--1--3-----5--6-----5-----3-----5--6L---|
----------------------------------------------------|
----------------------------------------------------|
----------------------------------------------------|
----------------------------------------------------|
----------------------------------------------------|


--6-----------5--6-----8-----3-----3--3--5-----6----|
----------------------------------------------------|
----------------------------------------------------|
----------------------------------------------------|
----------------------------------------------------|
----------------------------------------------------|

www.chordzone.org
 

--5-----------1--3-----5--6-----5--3--3-----1-------|
----------------------------------------------------|
----------------------------------------------------|
----------------------------------------------------|
----------------------------------------------------|
----------------------------------------------------|


--------------------------6-----5-----3--------0----|
--3-----------------1--1----------------------------|
----------------------------------------------------|
----------------------------------------------------|
----------------------------------------------------|
----------------------------------------------------|


--1L----------1-------------------------------------||
----------------------------------------------------||
----------------------------------------------------||
----------------------------------------------------||
----------------------------------------------------||
----------------------------------------------------||


Recommended for you:


Click to rate this post!
[Total: 0 Average: 0]