skip to content

J BALVIN feat BAD BUNNY – La Cancion Guitar Tabs

#
A+
A-


This song is from the album OASIS(2019), released on 28 June 2019.

Click here for the chords and lyrics version

SongRating: 7/10


Click here to suggest a song

Scale: E Minor
Time Signature: 4/4
Tempo: 92
Suggested Strumming: DU,DU,DU,DU
c h o r d  z o n e . o r g
Legend
L - tied note
x - dead note
h - hammer on/pull off
b - bend
s - slide
~ - vibrato
g - ghost note
> - accentuated note
t - trill
M - palm mute
. - staccato
P - popping (bass)
S - slapping (bass)
+ - tapping
W - wide vibrato
< - fade in
w - whammy bar
= - tremolo picking
v - brush up
^ - brush down
V - pick stroke up
n - pick stroke down


E |-------|--------------------5-----7-----7--7--7--5--7--5L---|
B |-------|----------------------------------------------------|
G |-------|----------------------------------------------------|
D |-------|----------------------------------------------------|
A |-------|----------------------------------------------------|
E |-------|----------------------------------------------------|


--5--------------------5----|
----------------------------|
----------------------------|
----------------------------|
----------------------------|
----------------------------|


--------------3--3--3--3--3--7-----5-----3-----0L---|
----------------------------------------------------|
----------------------------------------------------|
----------------------------------------------------|
----------------------------------------------------|
----------------------------------------------------|


--0-----------------------------------------7--5----|
----------------------------------------------------|
----------------------------------------------------|
----------------------------------------------------|
----------------------------------------------------|
----------------------------------------------------|


--------7--5--------7--5--------------3--3-----10L--|
----------------------------------------------------|
----------------------------------------------------|
----------------------------------------------------|
----------------------------------------------------|
----------------------------------------------------|


--10-7--------7-----5--5-----3--------3--3-----10L--|
----------------------------------------------------|
----------------------------------------------------|
----------------------------------------------------|
----------------------------------------------------|
----------------------------------------------------|


--10-7--------7-----5--5-----3--------3--3-----10L--|
----------------------------------------------------|
----------------------------------------------------|
----------------------------------------------------|
----------------------------------------------------|
----------------------------------------------------|


--10-7--------7-----5--5--------------7-----5L------|
-----------------------------8----------------------|
----------------------------------------------------|
----------------------------------------------------|
----------------------------------------------------|
----------------------------------------------------|


--5-----------------------7-----7--7--7--5--7--5L---|
--------------------8-------------------------------|
----------------------------------------------------|
----------------------------------------------------|
----------------------------------------------------|
----------------------------------------------------|

www.chordzone.org
 

--5--------------------3----|
----------------------------|
----------------------------|
----------------------------|
----------------------------|
----------------------------|


--------------3--3--3--3--3--7-----5-----3-----0L---|
----------------------------------------------------|
----------------------------------------------------|
----------------------------------------------------|
----------------------------------------------------|
----------------------------------------------------|


--0-----------------------------------------7--5----|
----------------------------------------------------|
----------------------------------------------------|
----------------------------------------------------|
----------------------------------------------------|
----------------------------------------------------|


--------7--5--------7--5--------------3--3-----10L--|
----------------------------------------------------|
----------------------------------------------------|
----------------------------------------------------|
----------------------------------------------------|
----------------------------------------------------|


--10-7--------7-----5--5-----3--------3--3-----10L--|
----------------------------------------------------|
----------------------------------------------------|
----------------------------------------------------|
----------------------------------------------------|
----------------------------------------------------|


--10-7--------7-----5--5-----3--------3--3-----10L--|
----------------------------------------------------|
----------------------------------------------------|
----------------------------------------------------|
----------------------------------------------------|
----------------------------------------------------|


--10-7--------7-----5--5--------------7-----5L------|
-----------------------------8----------------------|
----------------------------------------------------|
----------------------------------------------------|
----------------------------------------------------|
----------------------------------------------------|


--5-----------------------7-----7--7--7--5--7--5L---|--5----|-------|
--------------------8-------------------------------|-------|-------|
----------------------------------------------------|-------|-------|
----------------------------------------------------|-------|-------|
----------------------------------------------------|-------|-------|
----------------------------------------------------|-------|-------|


--------------------5-----7-----7--7--7--5--7--5L---|
----------------------------------------------------|
----------------------------------------------------|
----------------------------------------------------|
----------------------------------------------------|
----------------------------------------------------|


--5--------------------5----|
----------------------------|
----------------------------|
----------------------------|
----------------------------|
----------------------------|


--------------3--3--3--3--3--7-----5-----3-----0L---|
----------------------------------------------------|
----------------------------------------------------|
----------------------------------------------------|
----------------------------------------------------|
----------------------------------------------------|


--0-----------------------------------------7--5----|
----------------------------------------------------|
----------------------------------------------------|
----------------------------------------------------|
----------------------------------------------------|
----------------------------------------------------|


--------7--5--------7--5--------------3--3-----10L--|
----------------------------------------------------|
----------------------------------------------------|
----------------------------------------------------|
----------------------------------------------------|
----------------------------------------------------|


--10-7--------7-----5--5-----3--------3--3-----10L--|
----------------------------------------------------|
----------------------------------------------------|
----------------------------------------------------|
----------------------------------------------------|
----------------------------------------------------|


--10-7--------7-----5--5-----3--------3--3-----10L--|
----------------------------------------------------|
----------------------------------------------------|
----------------------------------------------------|
----------------------------------------------------|
----------------------------------------------------|


--10-7--------7-----5--5--------------7-----5L------|
-----------------------------8----------------------|
----------------------------------------------------|
----------------------------------------------------|
----------------------------------------------------|
----------------------------------------------------|


--5-----------------------7-----7--7--7--5--7--5L---|
--------------------8-------------------------------|
----------------------------------------------------|
----------------------------------------------------|
----------------------------------------------------|
----------------------------------------------------|

www.chordzone.org
 

--5--------------------3----|
----------------------------|
----------------------------|
----------------------------|
----------------------------|
----------------------------|


--------------3--3--3--3--3--7-----5-----3-----0L---|
----------------------------------------------------|
----------------------------------------------------|
----------------------------------------------------|
----------------------------------------------------|
----------------------------------------------------|


--0-----------------------------------------7--5----|
----------------------------------------------------|
----------------------------------------------------|
----------------------------------------------------|
----------------------------------------------------|
----------------------------------------------------|


--------7--5--------7--5--------------3--3-----10L--|
----------------------------------------------------|
----------------------------------------------------|
----------------------------------------------------|
----------------------------------------------------|
----------------------------------------------------|


--10-7--------7-----5--5-----3--------3--3-----10L--|
----------------------------------------------------|
----------------------------------------------------|
----------------------------------------------------|
----------------------------------------------------|
----------------------------------------------------|


--10-7--------7-----5--5-----3--------3--3-----10L--|
----------------------------------------------------|
----------------------------------------------------|
----------------------------------------------------|
----------------------------------------------------|
----------------------------------------------------|


--10-7--------7-----5--5--------------7-----5L------|
-----------------------------8----------------------|
----------------------------------------------------|
----------------------------------------------------|
----------------------------------------------------|
----------------------------------------------------|


--5-----------------------7-----7--7--7--5--7--5L---|--5----||
--------------------8-------------------------------|-------||
----------------------------------------------------|-------||
----------------------------------------------------|-------||
----------------------------------------------------|-------||
----------------------------------------------------|-------||


POPULAR SONGS

RELATED SONGS